Accordium Delectus Подборка аккордов
 
Главная > Песни из кино - и мультфильмов > Старый добрый паровоз

Старый добрый паровоз (фильм Здравия желаю)



Em   
E|---------------0---0---0---0---|
H|---------------0---0---0---0---|
G|---------------0---0---0---0---|
D|-------------------------------|
A|-----------------3---2---------|
E|-0-2-3-0-2-3-0-----------3---0-|
                                  Em                                   Am                    
E|--------------------0---0---0---0---0--------------------0---0---0---0---0-|
H|--------------------0---0---0---0---0--------------------1---1---1---1---1-|
G|--------------------0---0---0---0---0--------------------2---2---2---2---2-|
D|---------------------------------------------------------------------------|
A|----------------------3---2----------------------------0---2---3---2---0---|
E|-0-2---3--0---2-3-0-----------3---0---0--2--3--0--2--0---------------------|
 Старый добрый паровоз,               две заплатки на боку                    
                                    H7                                  Em                    
E|---------------------2---2---2---2---2-------------------------------------|
H|---------------------4---4---4---4---4-------------------------------------|
G|---------------------2---2---2---2---2-------------------------------------|
D|---------------------------------------------------------------------------|
A|-0---2-3-0--2----3-----3---2----------------2------------------------------|
E|-------------------2-----------3---2---2--3---3-2---3--0-------------------|
   И траво-ю путь зарос,               три вагона и "ку-ку"                   

Позади давно вокзал,
Меж лесов проложен путь...
"Ах, зачем ты не сказал,
Что назад не повернуть?

------------------------------------------------------------------------------------------------------------------------------
                                     E                                    Am                    
E|---------------------0---0---0---0---0---------------------0---0---0---0---0-|
H|---------------------0---0---0---0---0---------------------1---1---1---1---1-|
G|---------------------1---1---1---1---1---------------------2---2---2---2---2-|
D|-----------------------3---2---0-----------------------------3---2-----------|
A|---------0---2--3------------------2-------------0-2---3-0-----------3---0---|
E|-0-2--4------------4-------------------0--2-4--------------------------------|
 Что обратной ветки нет,               что билет в один конец                   
                                  H7                                     Em                   
E|--------------------2---2---2---2---2----------------------------------------|
H|--------------------4---4---4---4---4----------------------------------------|
G|--------------------2---2---2---2---2----------------------------------------|
D|-----------------------------------------------------------------------------|
A|-0-2-3--0-2--3--------3---2------------------2-------------------------------|
E|------------------2-----------3---2---2---3----3--2---3--0-------------------|
 Впереди не яркий свет,               клуб заброшенных сердец                   
------------------------------------------------------------------------------------------------------------------------------

Там на станции "Ля мур"
Группа восковых фигур,
А в руках у всех цветы,
Среди них и я, и ты

Старый добрый паровоз,
Две заплатки на боку,
И травою путь зарос,
Три вагона и "ку-ку"

Бой на гитаре (примерный вариант):

 


 
Последние комментарии

"В припевах после проигрыша НЕ ,,колдунья,, а КРОВИНКА ! Исправьте пожалуйста... С уважением, Анатолий КОРЖ"
 

"для многих эта песня актуальна и многие примеряют к себе"
 

"Очень прекрасная песня."
 

"Перепели качественно! Молодцы!"
 

"Монгол шуудан круче исполнил"
Статистика

Онлайн всего: 54
Гостей: 54
Пользователей: 0
Вход на сайт