Accordium Delectus Подборка аккордов
 
Главная > Б > Бартенев Стас > Продавец счастья

Стас Бартенев и группа Если: Продавец счастья


В оригинале на 1 тон выше (Hm).

Можно проиграть этими же аккордами, поставив каподастр на 2-ом ладу


Вступление:


E|--------------------------------------0---------------|

H|-----1----------0----------1----------0---------------|

G|-----2----------2----------2--------1---1-------------|

D|---2---2------3---3------1---1------------------------|

A|-0----------0----------0----------2-------------------|

E|------------------------------------------------------|

 

E|-----------------------------------0--------------0---|

H|-----1-0------------1-0--------------1------------0---|

G|---------2--------------2--------------2--------1---1-|

D|---2-------2------2-------2------3-------3------------|

A|-0--------------------------------------------2-------|

E|----------------3--------------1----------------------|

 

E|------------------------------------0-0-0-------------|

H|---1-1-1------0-0-0------1-1-1------0-0-0-------------|

G|---2-2-2------2-2-2------2-2-2------1-1-1-------------|

D|---2-2-2------3-3-3------1-1-1------------------------|

A|-0----------0----------0----------2-------------------|

E|------------------------------------------------------|


E|-----------------------------------0--------------0---|

H|-----1-0------------1-0--------------1------------0---|

G|---------2--------------2--------------2--------1---1-|

D|---2-------2------2-------2------3-------3------------|

A|-0--------------------------------------------2-------|

E|----------------3--------------1----------------------|


     Am        A7sus2 
У подножья небоскрёба,
     D#dim7         E  
Возле красочных витрин,
   Am            Am/G   
Появился вдруг шарманщик,
   Fmaj7          E 
Обезъяна вместе с ним

Он запел под скрип шарманки
Песню странную свою:
"Покупайте, люди, счастье,
  Hm7-5   E    Am 
Я недорого возьму"


Все мы разные на лица –
Этот беден, тот богат
Кто-то верит в небылицы,
Кто-то дышит – тем и рад

Но на миг остановитесь
И прислушайтесь к словам:
"Покупайте, люди, счастье,
Я недорого отдам"

Проигрыш=Вступление

Никому не приносили
В жизни счастья никогда
Даже горы золотые
И роскошные дома

Ничего совсем не значит
Даже то, что полон дом
Покупайте, люди, счастье,
   Те, кто счастьем обделён...

Окончание=Вступление...

 


 
Последние комментарии

"👍🏻Класс!"
 

""Да уж"-,как говорил Киса Воробышкин"
 

"После ухода Б.Грачевского понимаешь, что это искреннее признание."
 

"Замечательная.."
 

"В припеве вместо B7 напрашивается Bb"
Статистика

Онлайн всего: 86
Гостей: 86
Пользователей: 0
Вход на сайт