Accordium Delectus Подборка аккордов
 
Главная > В > Видяев Стас > Смайлик

Стас Видяев: Смайлик


Вступление:

      Dm                 G                 C          Am     

E|-8-7------8-7------8-7------8-7------8-7------8----7-7--5-|

H|-----6--------6--------6--------6--------5----------------|

G|-------7--------7--------7--------7---------5-------------|

D|----------------------------------------------------------|

A|----------------------------------------------------------|

E|----------------------------------------------------------|

 

      Dm                 G             

E|-8-7------8-7------8-7------8-7-----|

H|-----6--------6--------6--------6---|

G|-------7--------7--------7--------7-|

D|------------------------------------|

A|------------------------------------|

E|------------------------------------|


                            C                      Am  Asus2 Am
Солнце моё терзает снова Т-9,
                 Em                             F              
Смотрит в окно, мечтает, сочиняет новые песни
                               C                                  Am      Asus2 Am
Можно взлететь, лишь стоит только поверить
              Em                              F          G      
Матрицы все переиграть и сразу всем интересней

Припев:

         Dm                      
Как твои дела и смайлик
           G                     
Не смущают расстояния,
            C             Am 
Хочешь ты узна-а-а-ать

        Dm               
И порхают золотые,
            G                        
Нитки слов беспроводные,
               C                Am    F
Чтобы нас связа-а-а-ать


Мой талисман, мой лучик света сквозь тучи...
Не ожидал, не думал, чтоб настолько я был везучий
А в телефон твоя улыбка стучится,
И всё о чём мечтал - нажать лишь кнопку, скоро случится

Припев.

G                               
А в недрах GSM-а
F                                     
Сойдут с ума все схемы
C                             Am    
И позабудут, что почём

G                                   
И ангелы всех планов
F                    Fm                    
Вдруг безлимит бесплатно
     C                   Am             D
Включат всем, кто любит горячо

Припев - 2 раза.

           F          C
Как твои дела...

Примерный вариант боя:

 


 
Последние комментарии

"настоящие !"
 

"А мне мой будущий муж пел под гитару и прожили вместе 41 год"
 

"Замечательно! Так трогательно и жизнено."
 

"Помню эту вещь Барыкина мы тогда ее просто слушали даже не подбирали"
 

"Виталий спасибо за песню, пою всем друзьям, а вот минуса не нашел, можно б было петь на юбилеях, от вашего имени... с удовольствием слушаю песни и слежу за вашим творчеством, успехов во всем!!! С днем Советской Армии!!!"
Статистика

Онлайн всего: 144
Гостей: 144
Пользователей: 0
Вход на сайт