Accordium Delectus Подборка аккордов
 
Главная > С > СВ > Солдат Вселенной

Алексей Романов и группа СВ: Солдат Вселенной


Вступление (табы):

E|-------------------------3-------------------------------------3-----|

H|---------3-------------2---3-2-----------------3-------------2---3-2-|

G|-------0-------------0-----------------------0-------------0---------|

D|-----4-------------2-----------------------4-------------2-----------|

A|---2-------------0-----------------------2-------------0-------------|

E|-0-------------------------------------0-----------------------------|


E|-------------------------3-------------------------------------3-----|

H|---------3-------------2---3-2-----------------3-------------2---3-2-|

G|-------0-------------0-----------------------0-------------0---------|

D|-----4-------------2-----------------------4-------------2-----------|

A|---2-------------0-----------------------2-------------0-------------|

E|-0-------------------------------------0-----------------------------|

          Hm             D+5/B  
Я привык бродить один,
       D/A           G#m7-5
И глядеть в чужие окна
       Gmaj7            D/F#
В суете немых картин
    Dmadd9                   E7      
Отражаться в мокрых стёклах

          Em              Em7  
Мне хотелось бы узнать,
          C#m7-5             F#              Hm  
Что вас ждёт и что тревожит ваши сны,
         Gm/B                D/A   
Но вот опять приходит ночь,
                E7/G#                 
И день напрасно прожит...

Проигрыш:

E|-------------------------3-------------------------------------3-----|

H|---------3-------------2---3-2-----------------3-------------2---3-2-|

G|-------0-------------0-----------------------0-------------0---------|

D|-----4-------------2-----------------------4-------------2-----------|

A|---2-------------0-----------------------2-------------0-------------|

E|-0-------------------------------------0-----------------------------|



Мы устали от потерь,
А находим слишком редко
Мы скитались, а теперь
Мы живём в хрустальных клетках

      Em             Em7      
И теперь чужая радость
   C#m7-5              F# 
Не осушит наших слёз,
            Hm                 Gm/B    
И нам осталось только ждать...
         D/A         
Какая малость -
             E7/G#             Em9 
   Ждать того, кто не придёт...

Проигрыш:

E|-------------------------3-------------------------------------3-----|

H|---------3-------------2---3-2-----------------3-------------2---3-2-|

G|-------0-------------0-----------------------0-------------0---------|

D|-----4-------------2-----------------------4-------------2-----------|

A|---2-------------0-----------------------2-------------0-------------|

E|-0-------------------------------------0-----------------------------|



Трудно ждать, почти не веря,
Всё стерпеть ещё труднее!
Зажгите свет, откройте двери,
Быть может, мы ещё успеем...

                   Em               Em7    
Быть может, мы сейчас услышим
               C#m7-5           F#
Грохот льдин в реке -
  F#            Hm     
И я из дома вышел,
 Gm/B          D/A
И увидел - я один,
               E7/G#                   
И только снег на крышах...

Проигрыш:

E|-------------------------3-------------------------------------3-----|

H|---------3-------------2---3-2-----------------3-------------2---3-2-|

G|-------0-------------0-----------------------0-------------0---------|

D|-----4-------------2-----------------------4-------------2-----------|

A|---2-------------0-----------------------2-------------0-------------|

E|-0-------------------------------------0-----------------------------|


E|-------------------------3-------------------------------------3-----|

H|---------3-------------2---3-2-----------------3-------------2---3-2-|

G|-------0-------------0-----------------------0-------------0---------|

D|-----4-------------2-----------------------4-------------2-----------|

A|---2-------------0-----------------------2-------------0-------------|

E|-0-------------------------------------0-----------------------------|




И я бежал из ледяного плена:
Мне было мало на земле тепла!
И мне казалось - я солдат Вселенной,
В мировой войне Добра и Зла

              Em                           Em7 
И грянул бой на целый белый свет,
         C#m7-5           F#              Hm
И через миг земля очнулась ото сна,
      Gm/B           D/A
А наяву, как всегда,
       E7/G#         Em9
   То зима, а то весна...

Окончание:

E|-------------------------3-------------------------------------3-----|

H|---------3-------------2---3-2-----------------3-------------2---3-2-|

G|-------0-------------0-----------------------0-------------0---------|

D|-----4-------------2-----------------------4-------------2-----------|

A|---2-------------0-----------------------2-------------0-------------|

E|-0-------------------------------------0-----------------------------|


E|-------------------------3-------------------------------------3--------2-|

H|---------3-------------2---3-2-----------------3-------------2---3-2----3-|

G|-------0-------------0-----------------------0-------------0------------4-|

D|-----4-------------2-----------------------4-------------2--------------4-|

A|---2-------------0-----------------------2-------------0----------------2-|

E|-0-------------------------------------0----------------------------------|

 
Последние комментарии

"Супер песня "Матушка" . В ля миноре подошла мне"
 

"Исковерканы текст и мелодия. Переделана под блатную. Из мажора - в минор?"
 

"Супер песня!Я обожаю!"
 

"Шикарная песня, шикарное исполнение"
 

"выше сяких похвал. почему не издана, только на виниле, который запретили."
Вход на сайт