Accordium Delectus Подборка аккордов
 
Главная > Х > Хакимова Светлана > Мин Булырмын

Светлана Хакимова: Мин Булырмын



Вступление:

  Dm              Gm7           C             F A7         
E|--------------------------------------------------------|
H|-5>6-6-6-6-6-8-5-6--6--8-6-5--5-5-5-5-5-6-8-------------|
G|--------------------------------------------5---------5-|
D|-----------------------------------------------7--5-7---|
A|--------------------------------------------------------|
E|--------------------------------------------------------|

   B    C(8)      F              A7          Dm            
E|--------------------------------------------------------|
H|-------6--5-------------------------------5-------------|
G|-7-7-7------7-5-5---------------------------7-----------|
D|-------------------7--7-7-5----5-7-5-7--7---------------|
A|----------------------------8---------------------------|
E|--------------------------------------------------------|

Dm                                  
Иртән иртүк тәҙ(е)рәңә
C                                    
Ал ҡояштың нуры төшһә,
F                  F7         B    
Әкрен генә, йомшаҡ ҡына
  A7                     Dm   A7
Таңдың елдәре иҫһә-ә-ә

Припев - 2 раза:

Dm                             Gm7     
Мин булырмын, мин булырмын
  C                           F   A7
Нур булып уйнағанда-а-а
  B       C(8)                 F      
Мин булырмын таңдарыңда,
  A7                          Dm
Ҡош булып һайрағанда

Проигрыш:

|B  C(8)|F  F|A7  A7|Dm  Dm|

Һинең өсөн шишмәләрҙең
Уртлап алам көмөш һыуын
Һөйөүем менән баҫырмын
Йөрәгемдең ярһыуын

Припев.

Проигрыш=Вступление

Бер моң булып, тулҡын булып,
Ҡағыламын йөрәгеңә
Күләгәләй һарылам да
Төшәмен эҙҙәреңә...

Припев - 2 раза.

  B         C(8)             F       
Тик һин мине танырһыңмы
 A7                          Dm
Ҡош булып һайрағанда?
 A7                          Dm
Ҡош булып һайрағанда?

Окончание:

|B  C(8)|F  F|A7  A7|Dm  Dm|

Бой на гитаре (примерный вариант):

 
Последние комментарии

"чудесно...спасибо!"
 

"Чудо как хороша, я просто остолбенела, огромное спасибо автору и низкий поклон"
 

"Оч. Хорошо!"
 

"Спасибо, что добавили эту песню Владимира!"
 

"Спасибо !!!!"
Вход на сайт