Accordium Delectus Подборка аккордов
 
"
Главная > П > Повалий Таисия > Цвiте терен

Таисия Повалий: Цвiте терен


В оригинале на полтора и на два с половиной тона выше (Cm и Dm).

Можно проиграть этими же аккордами, поставив каподастр на 3-ем или на 5-ом ладу


Вступление (примерное):


  Am             Am/G             Dm                 E                          

E|----------0---------------0-------------1-------------------0---------------|

H|------1---------------1---------------3---3-------------0-------------------|

G|----2---2---2-------2---2---2-------2-------2---------1---1---1-------------|

D|---------------------------------0-----------------2------------------------|

A|-0--------------------------------------------------------------------------|

E|-----------------3---------------------------------0------------------------|

 

E|----------0---------------0-------------1---------------------4--7--10-----|

H|------1---------------1---------------3---3--------0--1--3----3--6--9------|

G|----2---2---2-------2---2---2-------2-------2------1--2--4----4--7--10-----|

D|---------------------------------0-----------------2------------------------|

A|-0--------------------------------------------------------------------------|

E|-----------------3----------------------------------------------------------|


 Am            E   Am    
Цвіте терен, цвіте терен,
    Am   Dm   E  Am  G 
Листя опада-а-є
  C           G    E      
Хто в любові не знається,
  Am    Dm      E  Am  G
Той горя не зна-a-є,
 C           G    E     
Хто в любові не знається,
Am    Dm      E  Am
Той горя не зна-a-є

А я молода дівчина,
Та й горя зазна-а-ла
Вечероньки не доїла,
Нічки не доспа-а-ала,
Вечероньки не доїла,
Нічки не доспа-а-ла

Проигрыш: Am  Am/G  Dm  E - 2 раза

Візьму в руки кріселечко,
Сяду край віко-о-нця
Іще очі не дрімали,
А вже сходить со-о-нце,
Іще очі не дрімали,
А вже сходить со-о-нце

Хоч дрімайте, не дрімайте, 
Не будете спа-a-ти
Десь поїхав мій миленький 
Iньшої шука-a-ти,
Десь поїхав мій миленький 
Iньшої шука-a-ти

Цвіте терен, цвіте терен,
Листя опада-а-є
Хто в любові не знається,
Той горя не зна-а-є,
Хто в любові не знається,
Той горя не зна-а-є

Окончание: Dm  E  Am

Поделись с друзьями:

 
 
Последние комментарии
Андрей Черняев «БИРТМАН: Иволга

"Спасибо! Долго добирался до компьютера, ещё раз большое спасибо!"
 

"Песня юности..."
 

"Очень круто!)) Вот тебе и актерское пение!!"
 

"Тогда другим - с крутых яиц бульон"
 
Борис Блохин «БИРТМАН: Иволга

"Ну и хрень."
Настройка гитары
1-ая струна E (ми)  

2-ая струна H (си)  

3-я струна G (соль) 

4-ая струна D (ре) 

5-ая струна A (ля) 

6-ая струна E (ми) 
Статистика

Онлайн всего: 50
Гостей: 50
Пользователей: 0
Вход на сайт