Accordium Delectus Подборка аккордов
 
Главная > А > Алёшина Татьяна > Звёздная река

Татьяна Алёшина: Звёздная река




Вступление (примерный вариант перебора):

Amadd9

E|---------0----------------0----------------0-------|

H|-----0-------0--------0-------0--------0-------0---|

G|---5---5---5---5----5---5---5---5----5---5---5---5-|

D|---------------------------------------------------|

A|-0----------------0----------------0---------------|

E|---------------------------------------------------|

E7/A

E|---------0----------------0----------------0-------|

H|-----3-----3---3------3-----3---3------3-----3---3-|

G|---4---4-----4------4---4-----4------4---4-----4---|

D|---------------------------------------------------|

A|-0----------------0----------------0---------------|

         E|---------------------------------------------------| - 2 раза

-----------------------------------------------------------------------------------

Am

E|---------0----------------0------------------------|

H|-----1-----1---1------1-----1---1------------------|

G|---2---2-----2------2---2-----2--------------------|

D|---------------------------------------------------|

A|-0----------------0--------------------------------|

E|---------------------------------------------------|


        Am                  Am/C    
Я не знаю, кто Землёй вертит,
        E                    Am     
Моё дело - сочинять сказки,
         Am                    F        
Разноцветные искать краски...
         E                 Am      
Если можете, вы им верьте!

      Dm7                 E7/G#    
Потому что этот мир - зыбкий,
      Gm6                        A7    
Потому что наша жизнь - море,
          Dm               Bmaj7-5
Что возникла из глубин горя
     Hm7-5                E     
По веленью золотой рыбки


Потому что все мы лишь дети,
Не по росту нам судьба взрослых,
Что досталась от времён прошлых
И поймала нас в свои сети

Мы бы вырваться из них рады,
Чтоб вернуться к своему детству,
Но, лишённые пути к бегству,
Устремляем к небесам взгляды

Припев:

Amadd9             E7/A   
О, звёздная река,
Amadd9            E7/A    
Кто по тебе плывёт?
 A7-9                      Dm/A
Кто смотрит сквозь века
 Fdim7                 Edim7
Вглубь серебристых вод?
 Fmaj7            Fmaj7-5
   О, звёздная река...


Моё дело - сочинять сказки
О загадочной ночной птице,
Что меняла каждый миг лица
И не знала от людей ласки

И летала от земли к небу,
Между солнцем и луной билась,
И кому-то по ночам снилась
Одинокая её небыль


Но однажды при лучах света,
За распахнутою сном дверью,
Обнаружились её перья
Небывалого для птиц цвета

Говорят, что если взять в руки
Эти перья и взмахнуть дважды,
То услышит наяву каждый
Нисходящие с небес звуки...

Припев.

Fmaj7-5
Река...
Река...
Река...
 


 
Последние комментарии

"Спасибо! Побольше бы таких мудрых, трогательных и красивых песен!"
 

"прекрасная песня и просто Прекрасный подбор, Спасибо!"
 

"Очень красивая песня.!!!"
 

"Супер!!! Спасибо за песню и смысл!!!!"
 

"Благодарю!!!"
Статистика

Онлайн всего: 27
Гостей: 27
Пользователей: 0
Вход на сайт