Accordium Delectus Подборка аккордов
 
Главная > Дуэты > Буланова, Любавин: Цветок

Татьяна Буланова и Сергей Любавин: Цветок


Смотреть в тональности Am


Вступление (примерный вариант перебора): 


 F#m                  H                 Emaj7                A                  


E|----------2-------------------2-------------------0-------------------0-------|

H|------2-------2-----------4-------4-----------0-------0-----------2-------2---|

G|----2---2---2---2-------4---4---4---4-------1---1---1---1-------2---2---2---2-|

D|-4---------------------------------------1------------------------------------|

A|---------------------2---------------------------------------0----------------|

E|------------------------------------------------------------------------------|


 F#m                 G#                 C#m                 


E|----------2-------------------4-------------------4-------|

H|------2-------2-----------4-------4-----------5-------5---|

G|----2---2---2---2-------5---5---5---5-------6---6---6---6-|

D|-4-------------------6------------------------------------|

A|-----------------------------------------4----------------|

E|----------------------------------------------------------|



                            F#m H                           Emaj7   A
Мой дорогой цветок, живёшь с собой вдвоём,
                         F#m G#                 C#m       
И веришь, что любить    пока ещё не поздно
                          F#m H                          Emaj7   A
Тебе всегда тепло    под питерским дождём,
                 F#m G#                             C#m     
А я под золотым,   московским солнцем мёрзну

Припев:

          F#m           G#     C#m  
Не сойдутся Москва с Невой,
             F#m           H Emaj7 
Нежной девочкой Севера
    F#m             G#     A   
У моей Москвы нет такой,
              F#m        G#   C#m 
Светлой нежности и тепла

       F#m        G#   C#m 
А когда развели мосты,
                     F#m      H     Hm    C#7 
Осень струны оборвала
     F#m         G#     A     
И у диких, твоих коней -
          F#m     G#    C#m 
Гривы воронова крыла


И в час, когда шепчу во имя всех святых,
В награду нам дано такое наказание
И я схожу с ума от нежных губ твоих,
От женской красоты горячего дыхания

Припев.

Проигрыш: F#m  H  Emaj7  A  F#m  G#  C#m    A  Dm

Переход на 1 полутон (на 1 лад) выше (Dm)

                            Gm C                            Fmaj7   B
Мой дорогой цветок, живёшь с собой вдвоём,
                         Gm  A                  Dm      
И веришь, что любить пока ещё не поздно
                             Gm C                           Fmaj7   B
И мне всегда тепло    под питерским дождём,
                    Gm A                               Dm         
А ты под золотым, московским солнцем мёрзнешь

Припев:

         Gm              A       Dm  
Не сойдутся Москва с Невой,
               Gm           C  Fmaj7 
Нежной девочкой Севера
    Gm              A       B 
У моей Москвы нет такой
              Gm          A      Dm 
Светлой нежности и тепла

       Gm          A      Dm 
А когда развели мосты,
                  Gm       C     Cm   D 
Осень струны оборвала
     Gm          A       B    
И у диких, твоих коней -
           Gm        A      Dm  
Гривы воронова крыла

          Gm       A      Dm  
  Гривы воронова крыла...

Окончание: Gm  C  Fmaj7  B  Gm  A  Dm

Примерный вариант боя:



 


 
Последние комментарии

"Чушнёй попахивает"
 

"СПАСИБО!!!"
 

"Красивая и правдивая песня! На все времена! Всех вспомнили,никого не забыли! Спасибо!"
 

"давно искал! спасибо!"
 

"Отличный подбор! Это тебе не на амдм хлам. Спасибо!"
Статистика

Онлайн всего: 105
Гостей: 104
Пользователей: 1
Justas
Вход на сайт