Accordium Delectus Подборка аккордов
 

Татьяна Пискарёва: Родина



Вступление (табы, примерный вариант перебора):

  Gm    Gm/A-Gm/B G/H  Cm  Cm/B-Cm/A     Gm       D7       Gm       D7 

E|-----3------3----3--------3--------3--------3--------2-------------2-|

H|-----3------3----3--------4--------4--------3--------1----------3--1-|

G|---3---3------3----4----5--------5---5----3---3----2---2------3----2-|

D|-------------------------------------------------0----------5------0-|

A|----------0-1----2----3--------0-------------------------------------|

E|-3---------------------------6----------3-----------------3----------|


             Gm              Cm    D7    Gm Gm/B
Окуну ладони в реку быструю,
            Cm       D7        Gm   D7
Тихо над водой склонюсь
                  Gm                Cm     D7      Gm Gm/B
Городскую, речка, смой печаль мою,
        Cm    D7       Gm   
Скоро я домой вернусь

                                B                      G/H       Cm  Cm/D-Cm/D#
И в ромашках вновь по пояс утону,
          A7                               D7
И в берёзках заплутаю до темна,
                              Gm      Gm/A Gm/B G/H  Cm  Cm/B-Cm/A
Больше жизни я люб--лю тебя одну,
           Gm    D7   Gm  D7
Моя Ро-о-ди-и-на!

Припев:

                                  Gm         Gm/A Gm/B   G/H   Cm       Cm/D-Cm/D#
Чем дело кончится, чем    сердце успокоится,
           Cm/A          D7
Не знаю на-а-пе-е-рёд
                               Gm      Gm/A-Gm/B      G/H     Cm         Cm/B-Cm/A
А мне на Родину                   вернуться хочется,
                    Gm                 Cm/A     D7     Gm  D7
Она, как мать, меня простит и всё поймёт
                              Gm      Gm/A-Gm/B      G/H     Cm         Cm/B-Cm/A
А мне на Родину                   вернуться хочется,
             Gm                 Cm/A     D7     Gm
Она, как мать, меня простит и всё поймёт


Знаю я, другие страны где-то есть
И другие города,
Но о том, что родилась когда-то здесь,
Не забуду никогда

Расцветут опять каштаны под окном,
А тоски моей по детству не унять
И молюсь я каждый день за отчий дом,
За отца и мать

Припев.

Окончание:

  Gm    Gm/A-Gm/B G/H  Cm  Cm/B-Cm/A     Gm       D7       Gm       Gm  

E|-----3------3----3--------3--------3--------3--------2-------------3-|

H|-----3------3----3--------4--------4--------3--------1----------3--3-|

G|---3---3------3----4----5--------5---5----3---3----2---2------3----3-|

D|-------------------------------------------------0----------5------5-|

A|----------0-1----2----3--------0-----------------------------------5-|

E|-3---------------------------6----------3-----------------3--------3-|

 
Последние комментарии

"Супер, вспомнил забытую вещь"
 

"ШИКАРНАЯ ПЕСНЯ!!!!"
 

"Шикарный голос! Слова песни, музыка завораживают! До слез."
 

"Ещё б ноты к этой песне."
 

"Класс!!!!!!"
Вход на сайт