Accordium Delectus Подборка аккордов
 

Татьяна Снежина: Снежинка


Смотреть в тональности Em


   Gm       Gm/B Cm                Cm/D#
Первый снег, первый след зимы,
   D7                          Gm Gm/B
Первый шаг от лета к холоду
  Cm     Cm/D#   Gm               Gm/B
Первый лист,   белый лист зимы,
  D7                         Gm Gm/B
Как пролог рассказа долгого

Припев:

           Cm  Cm/D#   Gm    Gm/B
Снежинка за снежинкой
        D7             Gm   Gm/B
Спускаются в ладонь мою
         Cm  Cm/D# Gm    Gm/B 
Ошибка за  ошибкой
         D7               Gm Gm/B
Прощаются мне вью-гою


Первый снег, как любовь твоя -
Может быть растает, может нет
Первый цвет ледяного дня
Между нами лёг первый снег

Припев.

Первый снег, как моя душа,
Смелые твои хранит следы
Может быть, не стоят и гроша
Я и первый снег твоей судьбы

Припев.

Проигрыш: Cm  Cm/D#  Gm  Gm/B  D7  Gm  Gm/B

Первый снег, первый след зимы,
Первый шаг от лета к холоду
Первый лист, белый лист зимы,
Как пролог рассказа долгого

Припев.

Примерный вариант перебора (куплет):


  Gm                 Gm/B                 Cm                 Cm/D#                

E|----------3-------------------3-------------------3-------------------3-------|

H|------3-------3-----------3-------3-----------4-------4-----------4-------4---|

G|----3---3---3---3-------3---3---3---3-------5---5---5---5-------5---5---5---5-|

D|------------------------------------------------------------------------------|

A|-----------------------------------------3-------------------6----------------|

E|-3-------------------6--------------------------------------------------------|

 

  D7                  D7                  Gm                 Gm/B                 

E|----------5-------------------5-------------------3-------------------3-------|

H|------7-------7-----------7-------7-----------3-------3-----------3-------3---|

G|----5---5---5---5-------5---5---5---5-------3---3---3---3-------3---3---3---3-|

D|------------------------------------------------------------------------------|

A|-5----------------------------------------------------------------------------|

E|---------------------5-------------------3-------------------6----------------|

 

  Cm                 Cm/D#                Gm                  Gm/B                 

E|----------3-------------------3-------------------3-------------------3-------|

H|------4-------4-----------4-------4-----------3-------3-----------3-------3---|

G|----5---5---5---5-------5---5---5---5-------3---3---3---3-------3---3---3---3-|

D|------------------------------------------------------------------------------|

A|-3-------------------6--------------------------------------------------------|

E|-----------------------------------------3-------------------6----------------|

 

  D7                  D7                  Gm                 Gm/B                 

E|----------5-------------------5-------------------3-------------------3-------|

H|------7-------7-----------7-------7-----------3-------3-----------3-------3---|

G|----5---5---5---5-------5---5---5---5-------3---3---3---3-------3---3---3---3-|

D|------------------------------------------------------------------------------|

A|-5----------------------------------------------------------------------------|

E|---------------------5-------------------3-------------------6----------------|


 
Последние комментарии

"Мне всегда слышалось " зато в руках заветный диск". И непонимание того, про кого все же песня: про расклейщиков афиш или коллекционеров разной атрибутики поп-идолов?"
 

"СУПЕР!"
 

"Спасибо!"
 

"На яндексмузыке, в сборниках Эдуарда Артемьева, эта песня длиннее - из 3-х куплетов. Добрая память замечательному композитору."
 

"Супер, вспомнил забытую вещь"
Вход на сайт