Accordium Delectus Подборка аккордов
 
Главная > T > The Rasmus > In The Shadows

The Rasmus: In The Shadows


Вступление (примерный вариант):

E|--------------------------------------------------------------------|

H|--------------------------------------------------------------------|

G|-7--7--7--7-7--6---------------------4--6--7--7-7--6----------------|

D|-7--7--7--7-7--6-7-4--4--4--4-4--6-7-4--6--7--7-7--6-7-4-4--6-6--7--|

A|-5--5--5--5-5--4-7-4--4--4--4-4--6-7-2--4--5--5-5--4-7-4-4--6-6--7--|

E|-----------------5-2--2--2--2-2--4-5-----------------5-2-2--4-4--5--|

 

E|--------------------------------------------------------------------|

H|--------------------------------------------------------------------|

G|-7--7--7--7-7--6---------------------4--6--7--7-7--6----------------|

D|-7--7--7--7-7--6-7-4--4--4--4-4--6-7-4--6--7--7-7--6-7-4--4--4--4-4-|

A|-5--5--5--5-5--4-7-4--4--4--4-4--6-7-2--4--5--5-5--4-7-4--4--4--4-4-|

E|-----------------5-2--2--2--2-2--4-5-----------------5-2--2--2--2-2-|


             Hm   F#m
No sleep,
                          Hm                       F#m      
No sleep until I am done with finding the answer
                 Hm   F#m
Won’t stop,
                          Hm                     F#m   
Won’t stop before I find a cure for this cancer

          D              F#m
Sometimes
                  Hm                     F#m    
I feel I going down and so disconnected
         D            F#m
Somehow
                                   Hm                         F#m-F-E
I know that I am haunted to be wanted

Припев:

           D         
I been watching,
         F#m   
I been waiting
             Hm            F#m 
In the shadows for my time

I been searching
I been living
For tomorrows all my life

Проигрыш=Вступление

They say
That I must learn to kill before I can feel safe
But I,
I rather kill myself than turn into their slave

Sometimes
I feel that I should go and play with the thunder
Somehow
I just don't wanna stay and wait for a wonder

Припев.

 D                             E          F#m     
Lately I been walking, walking in circles,
F#m                       A6         
Watching waiting for something
Hm                                 
Feel me, touch me, feel me,
              E7               F#m     F#m-F-E
Come take me higher

Припев.

                  D          F#m
I been watching,
                 Hm        F#m
I been waiting,
                 D          F#m
I been searching,
        Hm             F#m     
I been living for tomorrows

Проигрыш=Вступление

           D         
I been waiting...

Примерный вариант боя:

 


 
Последние комментарии

"Спасибо! Побольше бы таких мудрых, трогательных и красивых песен!"
 

"прекрасная песня и просто Прекрасный подбор, Спасибо!"
 

"Очень красивая песня.!!!"
 

"Супер!!! Спасибо за песню и смысл!!!!"
 

"Благодарю!!!"
Статистика

Онлайн всего: 105
Гостей: 105
Пользователей: 0
Вход на сайт