Accordium Delectus Подборка аккордов
 
Главная > T > The Red Elvises > Я хочу тебя

The Red Elvises: Я хочу тебя



Вступление:

  Dm      Ddim7     Am      Asus2-Am Fmaj7              E                 

E|-----1--------1----------5--------5----------0----------------0-------|

H|-------3--------0------5--------5--------1-----1----------0-----0-----|

G|---2--------1--------5------4-5--------2---2-----2------1---1-----1---|

D|-0--------0--------7-----------------3-------------3--2-------------2-|

A|----------------------------------------------------------------------|

E|----------------------------------------------------------------------|

 

  Dm      Ddim7     Am      Asus2-Am Fmaj7              E                 

E|-----1--------1----------5--------5----------0--------0--0------------|

H|-------3--------0------5--------5--------1-----1------0--0------------|

G|---2--------1--------5------4-5--------2---2-----2----1--1------------|

D|-0--------0--------7-----------------3-------------3--2--2------------|

A|------------------------------------------------------2--2------------|

E|------------------------------------------------------0--0------------|


Am                          C                              
Я так хотел узнать, что такое любовь,
E                         Am                               
Что такое плакать, что такое грустить...
F                             Dm                                
Переживал, и думал, что не смогу любить,
G                                                 Am       
Но понимал, что нужно с кем-то быть

Я рисовал любовь у моря на песке,
Не ожидал, что оживёт рисунок мой в тебе
Ты иссушила дождь, я полюбил тебя,
И это очень просто: я хочу тебя!

Припев:
 

            Dm Ddim7 Am Asus2-Am
Я хочу тебя,
 Fmaj7       E           Am              
Ведь это так просто!
                       Dm Ddim7 Am Asus2-Am Fmaj7 E 
Я хочу тебя...


Ненарисованный дождь принёс ураган,
Я не готов был пережить измену и обман
Я проклинаю тот день, я проклинаю себя,
Но слишком поздно я хочу тебя!

Припев.

Проигрыш:

Am  C  E  Am     F  Dm  G  Am

Припев.

Окончание:

  Dm      Ddim7     Am      Asus2-Am Fmaj7              E                 

E|-----1--------1----------5--------5----------0----------------0-------|

H|-------3--------0------5--------5--------1-----1----------0-----0-----|

G|---2--------1--------5------4-5--------2---2-----2------1---1-----1---|

D|-0--------0--------7-----------------3-------------3--2-------------2-|

A|----------------------------------------------------------------------|

E|----------------------------------------------------------------------|

 

  Dm      Ddim7     Am      Asus2-Am Fmaj7              E                 

E|-----1--------1----------5--------5----------0--------0---------------|

H|-------3--------0------5--------5--------1-----1------0---------------|

G|---2--------1--------5------4-5--------2---2-----2----1---------------|

D|-0--------0--------7-----------------3-------------3--2---------------|

A|------------------------------------------------------2---------------|

E|------------------------------------------------------0---------------|

Примерный вариант боя:

 


 
Последние комментарии

"Прекрасная песня. Легкая музыка. Очень понятная на слух. Красивая мелодия. Приятный голос исполнителя."
 

"здорово!звучит правдо-подобно"
 

"очаровательная трогательная песня"
 

"А кто автор стихов, кто автор музыки???"
 

"Спасибо! Побольше бы таких мудрых, трогательных и красивых песен!"
Статистика

Онлайн всего: 143
Гостей: 143
Пользователей: 0
Вход на сайт