Accordium Delectus Подборка аккордов
 

Тимур Ведерников: Однолюбы




Вступление (примерный вариант перебора):


Gm             

E|---------3-------|

H|-----3-------3---|

G|---3---3---3---3-|

D|-----------------|

A|-----------------|

         E|-3---------------| - 4 раза


  Gm                                    A                                         

E|---------3-------------------3----------------0-----------------------0-------|

H|-----3-------3-----------3-------3--------2-------2---------------2-------2---|

G|---3---3---3---3-------3---3---3---3----2---2---2---2-----------2---2---2---2-|

D|------------------------------------------------------------------------------|

A|--------------------------------------0-----------------------0---------------|

E|-3-------------------3--------------------------------------------------------|

  То ли это голуби воркуют,            То ли это звёзды стали ближе              

 

  Cm                                  D7                                    

E|---------3------------------3----------------2-------------------2--------|

H|-----4-------4----------4-------4--------1-------1-----------1-------1----|

G|---5---5---5---5------5---5---5---5----2---2---2---2-------2---2---2---2--|

D|-------------------------------------0-------------------0----------------|

A|-3------------------3-----------------------------------------------------|

E|--------------------------------------------------------------------------|

  Никакую женщину другую               Я не полюблю и не увижу               

 

    G               Cm                A                   D7                 

E|----------3----------------3----------------0--------------------2--------|

H|------3-------3--------4-------4--------2-------2------------1-------1----|

G|----4---4---4---4----5---5---5---5----2---2---2---2--------2---2---2---2--|

D|---------------------------------------------------------0----------------|

A|-------------------3----------------0-------------------------------------|

E|--3-----------------------------------------------------------------------|

Встречу испытание любое,            Всё переживу - и то, и это               

 

  Cm7         F       Bmaj7            Cm/A        D7          Gm               

E|-------3----------1-----------1--------------3----------2-------------3-------|

H|-----4----------1---------3-------3--------4----------1-----------3-------3---|

G|---3----------2---------2---2---2---2----5----------2-----------3---3---3---3-|

D|--------------------------------------------------0---------------------------|

A|-3--------------------1----------------0--------------------------------------|

E|------------1-------------------------------------------------3---------------|

  Так душа наполнена тобою,            Что другим просто места нету              


Проигрыш:

  Cm7         F       Bmaj7            Cm/A        D7          Gm-D7/A-B6        

E|-------3----------1-----------1--------------3----------2-----3---2---3-----3-|

H|-----4----------1---------3-------3--------4----------1-------3---1---3---3---|

G|---3----------2---------2---2---2---2----5----------2---------3---2---3-3-----|

D|--------------------------------------------------0---------------------------|

A|-3--------------------1----------------0--------------------------0---1-------|

E|------------1-------------------------------------------------3---------------|

 

  Cm7         F       Bmaj7            Cm/A        D7          Gm                 

E|-------3----------1-----------1--------------3----------2-------------3-------|

H|-----4----------1---------3-------3--------4----------1-----------3-------3---|

G|---3----------2---------2---2---2---2----5----------2-----------3---3---3---3-|

D|--------------------------------------------------0---------------------------|

A|-3--------------------1----------------0--------------------------------------|

E|------------1-------------------------------------------------3---------------|


Воды и огонь пройду, и трубы
Медные - и будет мне награда
Что в любое разлуке однолюбы, 
Всё равно всегда душою рядом

Слышишь, это голуби воркуют, 
Нежность разливая по планете
Никакую женщину другую
       Cm/A            D7            Gm-D7/A-B6
Я не полюблю на этом свете
Cm7         F             Bmaj7
Никакую женщину другую
Cm/A            D7            Gm   
  Я не полюблю на этом свете

Окончание=Проигрыш
 


 
Последние комментарии

"ах, какой проигрыш в конце красоты необыкновенной"
 

"Какой перебор?"
 

"Какой перебор здесь лучше?.."
 

"Очень сильное исполнение!"
 

"Кто автор слов? Рубцов?"
Статистика

Онлайн всего: 116
Гостей: 114
Пользователей: 2
kudinovar37, grign1kolai
Вход на сайт