Accordium Delectus Подборка аккордов Главная Отзывы Заявка на песню Аккорды Табы Новости Видео Статьи FAQ О сайте
А   Б   В   Г   Д   Е   Ё   Ж   З   И   Й   К   Л   М   Н   О   П   Р   С   Т   У   Ф   Х   Ц   Ч   Ш   Щ   Э   Ю   Я
 
A   B   C   D   E   F   G   H   I   J   K   L   M   N   O   P   Q   R   S   T   U   V   W   Y   Z                       0...9
"
Разделы сайта
                   
Настройка гитары
1-я струна E  

2-я струна H  

3-я струна G  

4-я струна D  

5-я струна A  

6-я струна E  
Главная > Т > Трофим > Я скучаю по тебе

Трофим (Сергей Трофимов): Я скучаю по тебе



Вступление:

Для одной гитары

E|-5-----3-1-0-----------------------3-----1-0-------------------------------|
H|---3-----------3-1---------3-----------1-----3---1-----------1-------------|
G|-----2-------2-----3---0-------0-----0---------0---3-2---2-------2---------|
D|-0-------------------0---0---0---0---------------------3---3---3-----------|
A|---------3---------1---------------3---------------------------------------|
E|-------------------------------------------0---------1---------------------|

E|-----0-1-----0---------------------------------------0-----------5---------|
H|-1-3-----------3-1-------------------3---2-----2-3-------5-----5-----------|
G|-----------3---------3-2-0---0-2-3-----------0---------0-----6-------------|
D|---------3---------3-------0-------0---0---2-------3-------5-------------0-|
A|-------1-------1-------------------------0-------2-------4-----------1-0---|
E|-------------------------3-------------------------------------------------|

Для двух гитар

  Dm     Dm/C       Gm/B              C      C/E        F                       
E|-----------------------------------------------------------------------------|
H|---3---------3--------------3-----------1---------------------1--------------|
G|-----2-----2---2--------0-------0-----0---0-----0---------2-------2----------|
D|-0-----0--------------0---0---0---0-----------2---2-----3---3---3---3--------|
A|---------3----------1---------------3----------------------------------------|
E|--------------------------------------------0---------1----------------------|
Соло
E|-5-----3------------------------------3--------------------------------------|
H|---------6---5--3-------------------------6-5---3-------------6---5----------|
G|------------------5-3-----------------------------5-3-2----------------------|
D|-----------------------------------------------------------------------------|
A|-----------------------------------------------------------------------------|
E|-----------------------------------------------------------------------------|

         B                 Gm               A7      G7    A7/C#             Dm  
E|------------------------------------------------------------------5----------|
H|---------------3------------------3-----------2-------3-------5--------------|
G|-----------3-------3----------3-------3-----0---0---0---0---0---0------------|
D|---------3---3---3---3------0---0---0---0----------------------------------0-|
A|-------1----------------------------------0-------2-------4------------1-0---|
E|--------------------------3--------------------------------------------------|
Соло
E|-----------------------------------------------------------------------------|
H|---3-5-6-----5-3-------------------------------------------------------------|
G|-5-----------------6--3-2-------2-3---7---6-------7---9---9------------------|
D|--------------------------5--------------------------------------------------|
A|-----------------------------------------------------------------------------|
E|-----------------------------------------------------------------------------|


Dm                                        E/H                                          
Казалось бы, ну что скучать? Всего семь дней разлуки...
Gm/B                       A7                 Dm          
А вот скучается - хоть волком вой!
Dm                   Dm/C     E/H                                  
Посуды кухонной гора - всё не доходят руки,
Gm/B                                    Em7-5      A7         
И я опять забыл полить столетник твой

Cm                          D7          Gm                                  
Друзья зовут: "Давай махнём на шашлыки, на дачу",
Gm7 С/E                 C                         F               
А я не еду, мне милей мой сплин
         B                               E                            
В привычной мизансцене дней всё выглядит иначе,
Em7-5                      A7              Dm           
Когда невольно поживёшь один

Припев:

           Dm   Dm/C        B6        Gm9 Gm
Я-а-а-а скучаю по тебе,
C                              F    A7        
Как апостол по святым мукам
Dm  Dm/C        B6           
Я-а-а-а скучаю по тебе -
    Em7-5          A7    Dm
Вот какая штука


Казалось бы, ну что скучать? Считается полезным
Недельку друг от друга отдохнуть
И я всё пробую начать жить логикой железной,
Но в логику любовь никак не запихнуть

И наш обыденный уклад, сложившийся годами,
Где суета сует владеет всем,
Мешает нам расслышать крик седого мирозданья,
Что мы живём не так и ни затем

Припев:

Я скучаю по тебе,
Как пустыня по снегам белым
Я скучаю по тебе,
         Em7-5             A7       Dm  H7
Что же тут поделать? 

Переход на 1 тон (на 2 лада) выше (Em)

Em                         Em7                  F#/C#                      
Казалось бы, ну что скучать? Пройдёт всего неделя,
         C6                     H7               Em             
И всё вернётся на круги своя
Em           Em7              F#/C#                           
Домашние дела, друзья, работа на пределе,
C6                                  Am      F#m7-5 H7    
А, в общем, жизнь вполне обыкновенная

  Dm                        E            Am                                   
И лишь заметив первый снег над хмурою столицей,
D/F#                     D              G           
И у ларьков озябшие цветы, 
            C                              F#                                  
Я вспомню, как недолог век, что он не повторится,
F#m7-5                         H7              Em              
И что всего прекраснее в нём ты...

Припев:

             Em    Em7          C6        Am          
Я-а-а-а скучаю по тебе,
    D                         G     H7   
Как подранок по своей стае
  Em    Em7         C6        Am
Я-а-а-а скучаю по тебе,
  F#m7-5               H7    Em
Вот ведь как бывает!

Em         C/E                             
Я-а-а    скучаю по тебе...
Я-а-а скучаю по тебе...

Окончание:

Em  C/E  Em
 
Ещё песни:
 

 
 
Новые добавления
Статистика

Онлайн всего: 84
Гостей: 83
Пользователей: 1
Justas

Яндекс.Метрика

Вход на сайт