Accordium Delectus Подборка аккордов
 
Главная > Т > Трофим > Родина

Сергей Трофимов (Трофим): Родина



Вступление (примерный вариант перебора):

  Em      Em/G     Am/F#     H7        

E|------------------------------------|

H|-----0--------0--------1--------0---|

G|-----0--------0--------2--------2---|

D|---2---2----2---2----2---2----1---1-|

A|----------------------------2-------|

E|-0--------3--------2----------------|

  Em      Em/G   Asus2/F#    H7        

E|------------------------------------|

H|-----0--------0--------0--------0---|

G|-----0--------0--------2--------2---|

D|---2---2----2---2----2---2----1---1-|

A|----------------------------2-------|

E|-0--------3--------2----------------|


Em             Em/G            Am/F# H7                 
Золотые маковки церквей   над рекою,
Em                  Em/G        Asus2/F#    H7       
Земляника спелая с парным молоком
Em                Em/G            Am/F# H7                 
Я бегу по скошенной траве, а надо мною
Em              Em/D         C       
Небо голубое высоко

C-C/H-Am                 Am/G           Am/F#             
Я ещё мальчишка лет пяти,
    H7              Em/C#
И радость моя поёт,
                            Asus2/C  H7
И счастье моё летит...


Бабушкины сказки про любовь и отвагу,
Где добро и правда белый свет берегут
Дедовы медали "За Берлин" и "За Прагу",
И весенний, праздничный салют

Знаю, что все вместе мы - народ,
И счастье моё летит,
И радость моя поёт...

Припев:

       Em           Em/G
Это всё моё родное,
          Am              Am/F#
Это где-то в глубине,
        H7         H7/F#
Это самое святое,
       A7sus2/G        H7/F#
Что осталось во мне

Это нас хранит и лечит,
Как Господня Благодать,
                            H7              H7/F#        Em/C#   Asus2/C  H7
Это то, что не купить и не отнять


Время равнодушное пройдёт по округе,
Вычеркнув родные для меня адреса
Мы познаем прибыль и расчёт, но друг в друге
Перестанем видеть небеса

И когда мне станет тяжело,
Я снова скажу себе,
Всем временам назло

Припев:

Это всё моё родное,
Это где-то в глубине,
Это самое святое,
Что осталось во мне

Это нас хранит и лечит,
Как Господня Благодать,
      H7              H7/F#        Em/C#
Это то, что не купить и не отнять,
 Asus2/C             H7             Em  
Это то, что не купить и не отнять

Окончание:

  Em      Em/G     Am/F#     H7        Em

E|--------------------------------------0-|

H|-----0--------0--------1--------0-----0-|

G|-----0--------0--------2----------2---0-|

D|---2---2----2---2----2---2----1-------2-|

A|----------------------------2---------2-|

E|-0--------3--------2------------------0-|


 
Последние комментарии

"можно на 1 струне"
 

"Реклама одолела"
 

"сильная песня"
 

"👍"
 

"Сила"
Вход на сайт