Accordium Delectus Подборка аккордов
 
Главная > Т > Трофим > За тихой рекою

Сергей Трофимов (Трофим): За тихой рекою



В оригинале на полтора тона ниже (C#m)


           Em            C             G                        

E|----------------0------------0-------------3----------------|

H|--------------0---0--------1---1---------0---0--------------|

G|------------0-------0----0-------0-----0-------0------------|

D|----------2-------------------------------------------------|

A|-----------------------3------------------------------------|

E|-------------------------------------3----------------------|

За тихой реко-о-о-ю,      в берёзовой ро-о-още                

 

   G              D            D              G                 

E|-------3--------------2------------2--------------3---------|

H|-----0---0----------3---3--------3---3----------0---0-------|

G|---0-------0------2-------2----2-------2------0-------0-----|

D|----------------0------------0------------------------------|

A|------------------------------------------------------------|

E|-3------------------------------------------3---------------|

     Распустится пе-е-рвый       весенний цветок,              

 

   G           Am           Am           Em                    

E|-------3------------0------------0------------0-------------|

H|-----0---0--------1---1--------1---1--------0---0-----------|

G|---0-------0----2-------2----2-------2----0-------0---------|

D|----------------------------------------2-------------------|

A|--------------0------------0--------------------------------|

E|-3----------------------------------------------------------|

       И я загада-а-а-ю       желанье попроще,                 

 

  Em              H7           H7             Em               

E|-------0---------------2------------2--------------0------0-|

H|-----0---0-----------0---0--------0---0----------0---0----0-|

G|---0-------0-------2-------2----2-------2------0-------0--0-|

D|-2-------------------------------------------2------------2-|

A|-----------------2------------2-----------------------------|

E|------------------------------------------------------------|

       И, перекрестившись,      взгляну на восток              



Окрасится небо багряной зарёю,
И вечное солнце над миром взойдёт,
И белая птица взлетит над землёю,
И Божье прощение с небес принесёт

И что-то большое откроется сердцу,
Такое, что жизнью моей не объять
И станет спокойно, и сладко, как в детстве,
Когда обнимала меня моя мать

Молитва святая слезами прольётся,
Христовой любовью исполнится грусть,
И в это мгновение душа прикоснётся
К великой вселенной, по имени Русь

 
Последние комментарии

"Круть😃😃😃"
 

"Великолепная поэзия."
 

"Исполнитель и автор Денис чулец"
 

"Отличная песня . Даже поплакал....."
 

"Самые лучшие аккорды. Счастлив, что нашёл ваш сайт"
Статистика

Онлайн всего: 25
Гостей: 25
Пользователей: 0
Вход на сайт