Accordium Delectus Подборка аккордов
 
"
Главная > У > УмаТурман > Нижний Новгород

УмаТурман: Нижний Новгород



Вступление:

     Dm7       E7      Am      Dm7      E7       Am             

E|----1--1--0--0--------0-------1--1--0--0--------0----5-------|

H|----1--------3--1--0--1-------1--------3--1--0--1------------|

G|-2--2--------1--------2----2--2--------1--------2------------|

D|----0--------2--------2-------0--------2--------2------------|

A|-------------2--------0----------------2--------0------------|

E|-------------0-------------------------0---------------------|

     Dm7       E7      C6     F  Hm7-5               E           

E|----1--1--0--0--------------5------------------------------0-|

H|----1--------3--1--0--1-3-5-6----0--0-----0--1--3--------0---|

G|-2--2--------1--------2-4-5-5----2-----2---------------1-----|

D|----0--------2--------------3------------------------2-------|

A|-------------2--------3----------2---------------------------|

E|-------------0-------------------------------------0---------|


Amadd9                  Am9                          Dm9               Dm              
Я родился здесь, на Бикетовке, в райских её садах,
Amadd9                     Am9                 Dm9                   Dm              
Я прыгал по крышам сараев и от восторга кричал
Amadd9                      Am9                      Dm9              Dm                          
С тех пор я объездил весь мир, я был во всех его городах,
Amadd9                       Am9                Dm9                                      
Но такого, как мой Нижний, я никогда не встречал

Припев:

         Dm(2)     E                   Asus2  Am
А мой любимый город живёт,
          Dm(2)     E                        Asus2  Am
Он самый лучший, самый родной
    Dm(2)     E                   C6          Fmaj7
А мой любимый город смотрит вперёд
Hm7-5                                  E7
С Верхне-Волжской набережной

Проигрыш:

Dm(2)  E  Asus2  Am - 2 раза Dm(2)  E  C6  Fmaj7  Hm7-5  Hm7-5  E7  E7

Мои годы катились по Белинке и по Сенной
На велосипеде "Орлёнок" с "восьмёркой" на колесе
Те минуты, что ты подарил мне, я помню все до одной,
С тех пор я понял - мы с тобой не такие, как все

Припев.

Проигрыш:

Dm(2)  E  Asus2  Am - 2 раза Dm(2)  E  C6  Fmaj7  Hm7-5  Hm7-5  E7  E7

по колено в Горьковском море турбазы "Лесной уют"
Доставал жемчуга из ракушек, русалок кормил с руки
Одни из нас убегают вперёд, другие из нас отстают,
Но всё это не важно, мы лишь капли из этой реки

Припев - 2 раза.

Окончание:

Dm(2)  E  Asus2  Am - 2 раза Dm(2)  E  C6  Fmaj7  Hm7-5  Hm7-5  E7  E7

     Dm7       E7      Am      Dm7      E7       Am              

E|----1--1--0--0--------0-------1--1--0--0--------0----5-------|

H|----1--------3--1--0--1-------1--------3--1--0--1------------|

G|-2--2--------1--------2----2--2--------1--------2------------|

D|----0--------2--------2-------0--------2--------2------------|

A|-------------2--------0----------------2--------0------------|

E|-------------0-------------------------0---------------------|

     Dm7       E7      C6     F  Hm7-5               E           

E|----1--1--0--0--------------5------------------------------0-|

H|----1--------3--1--0--1-3-5-6----0--0-----0--1--3--------0---|

G|-2--2--------1--------2-4-5-5----2-----2---------------1-----|

D|----0--------2--------------3------------------------2-------|

A|-------------2--------3----------2---------------------------|

E|-------------0-------------------------------------0---------|

Бой на гитаре (примерный вариант):

 
Поделись с друзьями:
 
 
Последние комментарии

"Амэнь!"
 

"В Иркутске опять дождь и монотонный и ленивый)))"
 

"Мне нравится"
 

"супер.....браво,.молодцы"
 

"интересный вариант"
Настройка гитары
1-ая струна E (ми)  

2-ая струна H (си)  

3-я струна G (соль) 

4-ая струна D (ре) 

5-ая струна A (ля) 

6-ая струна E (ми) 
Статистика

Онлайн всего: 62
Гостей: 62
Пользователей: 0
Вход на сайт