Accordium Delectus Подборка аккордов
 
Главная > У > Усланов Вадим > Признание

Вадим Усланов: Признание



Вступление:

  Em     Gmaj7     C     E7/H     Am     Cmaj7    Am6   D7sus4 D7   

E|-3-----3-2-----2-0-----0---------8-----8-7-----7-5-----5-3---2---|

H|-----0-------0-------1---3-----3-----5-------5-------5-----1---1-|

G|---0-------0-------0---------1-----5-------5-------5-------------|

D|-2-------0-----------------2-------------5-------4-------0-------|

A|-----------------3-------2-------0-------------------------------|

E|-----------------------------------------------------------------|

 Dmadd9       Dm7         F-5      E7/G#  Amadd9    Am7      

E|-12-------12-10-------10-8-------8-7-----7-7-----7-5-----5-|

H|-------10----------10---------10-------5-------5-------5---|

G|----10----------10---------10--------7-------5-------5-----|

D|-12----------10----------9---------6-------7-------5-------|

A|-----------------------------------------------------------|

E|-----------------------------------------------------------|

 H-9             H7 

|---------2-------2-|

|-------4-------4-4-|

|-----5-------5---2-|

|---4-------4-----4-|

|-2---------------2-|

|-------------------|


           Em             H7   Em/G  E7/G#
Дождь в окно напоёт,
                  Am       Cmaj7        Am6  D7sus4-D7
Ветер в дверь постучит,
Dmadd9              Dm7  F-5    E7/G#            
Солнце скоро не взойдёт,
Amadd9     Am7  H7sus4  H7  
А утро     хмуро  промолчит

         Em  Gmaj7       C     E7/H
Промолчит мою боль,
                      Am   Cmaj7 F#m7-5  D7sus4-D7
Что свечою сгорит
Dmadd9        Dm7    F-5    E7/G#           
Не нарушу твой покой,
       Amadd9      Am7 Amadd9(2) H7-9  H7
И пусть судьба    тебя      хранит

Припев:

Em(2)       C(2) Am6(2) H7+5   H7(2) 
Пусть хранит от бед  нену-у жных,
Em(2)         C(2)     Am7     D7sus4     D7            
От ночей, от зимних, вью-у-жных,
G                  Dm     E7        
От разлуки и печали,
Amadd9  Am7      H7+5       H7(2)
Вдаль умчавшей птичьей стаи

Пусть осенние тревоги
Обойдут твою дорогу
В прошлом всё спеши оставить,
Может, ты обманешь память

Проигрыш:

  Em F#7-9  Am9   H7 

E|----3-2----7>8>7-5-|

H|----0-1----5-----4-|

G|----0-0----5-----4-|

D|----2-2----------4-|

A|-----------0-------|

E|-0-----------------|


Белой тенью взлечу
И, с дождём в унисон,
С ветром в дом твой постучу
Иль ворвусь в твой сладкий сон

Разобьюсь о стекло,
И душа отболит,
Только знай, моё тепло
Всё ж когда-то сохранит

Припев.

Проигрыш:

  Em F#7-9  Am9   H7 

E|----3-2----7>8>7-5-|

H|----0-1----5-----4-|

G|----0-0----5-----4-|

D|----2-2----------4-|

A|-----------0-------|

E|-0-----------------|

  Em     Gmaj7     C     E7/H     Am     Cmaj7    Am6   D7sus4 D7   

E|-3-----3-2-----2-0-----0---------8-----8-7-----7-5-----5-3---2---|

H|-----0-------0-------1---3-----3-----5-------5-------5-----1---1-|

G|---0-------0-------0---------1-----5-------5-------5-------------|

D|-2-------0-----------------2-------------5-------4-------0-------|

A|-----------------3-------2-------0-------------------------------|

E|-----------------------------------------------------------------|

 Dmadd9       Dm7         F-5      E7/G#  Amadd9 Am7  Cm  

E|-12-------12-10-------10-8-------8-7-----7-7----5----3-|

H|-------10----------10---------10-------5---5----5----4-|

G|----10----------10---------10--------7-----5----5----5-|

D|-12----------10----------9---------6-------7----5----5-|

A|-------------------------------------------0---------3-|

E|-------------------------------------------------------|


Переход на полтора тона выше (Gm)

Припев:

Gm    D#    Cm6  D7+5   D7(2)
Сохранит от бед нену-у-жных,
Gm          D#     Cm7      F7sus4 F7        
От ночей, от зимних, вьюжных,
B                  Fm    G7       
От разлуки и печали,
Cmadd9  Cm7     D7+5       D7(2)
Вдаль умчавшей птичьей стаи

Пусть осенние тревоги
Обойдут твою дорогу
В прошлом всё спеши оставить,
             Cmadd9  Cm7 D7+5         D7(2)   D#  D#m
Может, ты  обманешь память

Окончание:

  Gm     Bmaj7  D#6add9              

E|-6-----6-5-----5---------6---8-15-|

H|-----3-------3---------6---8------|

G|---3-------3---------5------------|

D|-5-------3---------5--------------|

A|-----------------6----------------|

E|----------------------------------|

 
 
Последние комментарии

"Скачать"
 

"Песню услышал примерно год назад, но тогда найти автора и исполнителя не удалось. А песня так понравилась, что разослал ролик всем своим друзьям, желая поделиться прекрасным! И вот, слава бобу, песня стала популярной! Браво, Виктория!"
 

"Клас"
 

"Кто авторы?Хочу сделать клип."
 

"Дааа... Моей маме я уж смогу руки целовать только во сне..."
Статистика

Онлайн всего: 39
Гостей: 39
Пользователей: 0
Вход на сайт