Accordium Delectus Подборка аккордов
 
Главная > П > Пак Валерий > Что в имени тебе моём?

Валерий Пак: Что в имени тебе моём?

(на стихи А.С.Пушкина)
 


Вступление:

E|-10-----------8-6-8-----5-----6-5-6-----------5-3-3---1---0---1---|

H|------8---------------6---------------3---------------3-----------|

G|----7---7---5-------5---------------3---3---6-------2---2---2---2-|

D|-8----------------7---------8---------------------0-------3-------|

A|----------7-------------------------------0-----------------------|

E|--------------------------6-------3-------------------------------|

 

E|-10-----------8-6-8-----5-----6-5-6-------0---------------0---1---|

H|------8---------------6---------------3---3---2-------3-----------|

G|----7---7---5-------5---------------3---3---0---0---2---2---2---2-|

D|-8----------------7---------8---------------------0---------------|

A|----------7-------------------------------0-----------------------|

E|--------------------------6-------3-------------------------------|


Припев:

              Gm          A7  Dm  Dm/C
Что в имени тебе моём?
           B C                  F        
Оно умрёт, как шум печальный
            Gm                      A7    Dm        Dm/C
Волны, плеснувшей в берег дальний,
                   B C                F     
Как звук ночной в лесу глухом...
      Gm          A7  Dm  
Что в имени тебе моём?



Dm/C-B            A7               Dm  Dm/C 
Оно на памятном листке
B                C                      F            
Оставит мёртвый след, подобный
          Gm    A7             Dm       Dm/C
Узору надписи надгробной
B              C              F       
На непонятном языке...
   Gm             A7        Dm
Оно на памятном листке

Припев.

Что в нём? Забытое давно
В волнениях новых и мятежных,
Твоей душе не даст оно
Воспоминаний чистых, нежных,
Твоей душе не даст оно

Проигрыш=Вступление.

Припев.

Но в день печали, в тишине,
Произнеси его тоскуя,
Скажи: есть память обо мне,
                  B      C          A7   
Есть в мире сердце, где живу я,
B                   A7                Dm      
Есть в мире сердце, где живу я
 


 
Последние комментарии

""Ласковый май" вернулся"
 

"Безумно красивая композиция"
 

"Текст не соответствует заявленному! Примите меры."
 

"Сравните с исполнением Владимир Трошина"
 

"Класс. Настоящая песня со смыслом. А то превратили женщин элегантно года возраста а старух. А мы живые и очень даже."
Вход на сайт