Accordium Delectus Подборка аккордов
 
Главная > П > Пак Валерий > Найти друг друга

Валерий Пак: Найти друг друга



Вступление:

E|---------2-----------|
H|-----3--3-------3--2-|
G|----4--4-------3-----|
D|---4----------2------|
A|-2-------------------|
         E|-----------2---------| - 2 раза

        Hm                          Em6
Мне много женских душ дарило
    F#7                       Hm   
Свою любовь, свою печаль,
           H7                       Em   
В них, не найдя тебя, ветрило
            Em6                 F#7   
Я поднимал - и снова в даль!

       H7                               Em        
Так за второй встречалась третья...
     A/C#                       D
   Но не было меж них тебя...
H7       Em               Hm     
Я не отчаивался встретить
   C#7            F#7 Hm
Тебя, владычица моя!

Проигрыш=Вступление

Мне много женских душ дарило
Свою любовь, свою печаль,
В них, не найдя тебя, ветрило
Я поднимал - и снова в даль!

Твой первый взгляд явил мне чудо,
Он - незабвенный амулет,
И ты меня искала всюду,
Как я тебя, пятнадцать лет

Проигрыш=Вступление

Мне много женских душ дарило
Свою любовь, свою печаль,
В них, не найдя тебя, ветрило
Я поднимал - и снова в даль!

Проигрыш:

E|-----5-5-5------3-2-3-----3-3-3-------2-0-2-----2-2-2------0---0-----3-2--------------|
H|----4--------5-----------2---------3-----------3--------0----3------2----3------3-5-7-|
G|---4-------4------------2--------2------------4-------0------------3---------4--------|
D|------------------------------0--------------------------------------------4----------|
A|-2--------------------0-----------------------------4--------------------2--------4-6-|
E|---------0----------------------------------3--------------------2--------------------|

E|-----5-5-5------3-2-3-----3-3-3-------2-0-2-----2-2-2------0---0-----3-2-|
H|----4--------5-----------2---------3-----------3--------0----3------2----|
G|---4-------4------------2--------2------------4-------0------------3-----|
D|------------------------------0------------------------------------------|
A|-2--------------------0-----------------------------4--------------------|
E|---------0----------------------------------3--------------------2-------|

E|---------2-----------|
H|-----3--3-------3--2-|
G|----4--4-------3-----|
D|---4----------2------|
A|-2-------------------|
         E|-----------2---------| - 2 раза

Мне много женских душ дарило
Свою любовь, свою печаль,
В них, не найдя тебя, ветрило
Я поднимал - и снова в даль!

Найти друг друга - вот отрада!
А жизнь вдвоём - предтеча тьмы...
Нам больше ничего не надо:
Лишь друг вне друга вместе мы!

Найти друг друга - вот отрада!
А жизнь вдвоём - предтеча тьмы...
Нам больше ничего не надо:
          C#7                  F#7     H7 
Лишь друг вне друга вместе мы!

Окончание:

E|-----5-5-5------3-2-3-----3-3-3-------2-0-2-----2-2-2------0---0-----3-2--------------|
H|----4--------5-----------2---------3-----------3--------0----3------2----3------3-5-7-|
G|---4-------4------------2--------2------------4-------0------------3---------4--------|
D|------------------------------0--------------------------------------------4----------|
A|-2--------------------0-----------------------------4--------------------2--------4-6-|
E|---------0----------------------------------3--------------------2--------------------|

E|-----5-5-5------3-2-3-----3-3-3-------2-0-2-----2-2-2------0---0-----3-2-|
H|----4--------5-----------2---------3-----------3--------0----3------2----|
G|---4-------4------------2--------2------------4-------0------------3-----|
D|------------------------------0------------------------------------------|
A|-2--------------------0-----------------------------4--------------------|
E|---------0----------------------------------3--------------------2-------|

E|---------2-----------|          E|-7-|
H|-----3--3-------3--2-|          H|-7-|
G|----4--4-------3-----|          G|-7-|
D|---4----------2------|          D|---|
A|-2-------------------|          A|---|
E|-----------2---------| - 3 раза E|-7-|
 


 
Последние комментарии

"Спасибо, огромное за песню... Трогает в самое сердце и душу...."
 

"Заглушка это белые стрелки на грифе?"
 

"Шикарное исполнение!!!"
 

"Спасибо. Очень нравятся песни Юлии Березовой. Царствие небесное."
 

"Третий куплет! А на белом свете солнцем всё согрето И берёзе ветер шепчет по секрету Всё сбылось как будто и печаль от части А невесты плачут плачут может быть от счастья!"
Статистика

Онлайн всего: 90
Гостей: 90
Пользователей: 0
Вход на сайт