Accordium Delectus Подборка аккордов
 
Главная > П > Пак Валерий > Солдатка

Валерий Пак: Солдатка



Вступление (примерный вариант):

E|-0-0-----0---0---0----------0---0---0--0-0-----0---0---0--2~3~2-----0---0---0-|

H|-----0---1---1---1--1-1-----0---0---0------0---1---1---1--3-----3---0---0---0-|

G|---------2---2---2------2---0---0---0----------2---2---0--4---------0---0---0-|

D|------------------------------------------------------------------------------|

A|-------0---0---0-----------------------------0---0---3----2-------------------|

    E|--------------------------0---0---0-------------------------------0---0---0---|-2р 

 

E|-2~3~2-----0---0---0-|

H|-3-----3---0---0---0-|

G|-4---------0---0---0-|

D|---------------------|

A|-2-------------------|

         E|---------0---0---0---| - 2 раза


1.

Em   Em/G   Am      
Горестная складка -
         C  Hm            Em  Hm-Em 
Горькие слова
    Em        Em/G     Am    
В двадцать два - солдатка,
              C       D                     G Gmaj7/F# E7
В двадцать три - вдова

     E7              Am Am/C H7
А уж как люби-и-ла!
                              Em  Hm-Em
А теперь - одна
Em Em/G   Am     
Это было, было,
C   Hm              Em  
   Всё взяла война...

          Am          C  Hm
М-м-м, м-м-м-м,
                             Em  Hm-Em  Hm-Em
М-м-м-м...

------------------------------------------------------------------
2.

      Em          Em/G  Hm   Em             
Всё взяла, и не-е-ту -
       C   Hm              Em  Hm-Em
Пепел, да свинец
   Em           Em/G     Hm  Em        
Шла война по све-е-ту
            C Am       D        G Gmaj7/F# E7
Из конца в конец

Шла война, кипела,
Землю жгла дотла
Всё перетерпела,
Всё перемогла

М-м-м, м-м-м-м,
М-м-м-м...

------------------------------------------------------------------
2.

А в краю неблизком -
Холмик, да скамья
Там, под обелиском,
Спит любовь твоя

Белая оградка,
Блёклая листва...
В двадцать два - солдатка,
В двадцать три - вдова

М-м-м, м-м-м-м,
М-м-м-м...

Проигрыш:

E|-0-0-----0---0---0----------0---0---0--0-0-----0---0---0--2~3~2-----0---0---0-|

H|-----0---1---1---1--1-1-----0---0---0------0---1---1---1--3-----3---0---0---0-|

G|---------2---2---2------2---0---0---0----------2---2---0--4---------0---0---0-|

D|------------------------------------------------------------------------------|

A|-------0---0---0-----------------------------0---0---3----2-------------------|

E|--------------------------0---0---0-------------------------------0---0---0---|

 

E|-2~3~2-----0---0---0-|

H|-3-----3---0---0---0-|

G|-4---------0---0---0-|

D|---------------------|

A|-2-------------------|

         E|---------0---0---0---| - 2 раза


------------------------------------------------------------------
1.

Горестная складка -
Горькие слова
В двадцать два - солдатка,
В двадцать три - вдова

А уж как любила!
А теперь - одна
Это было, было,
Всё взяла война...

     Am         C  
М-м-м, м-м-м-м,
 Hm             Em
   Всё взяла война...

М-м-м, м-м-м-м,
Всё взяла война...

  Hm  Em   
М-м-м-м...
М-м-м-м...
М-м-м-м...
 


 
Последние комментарии

"Спасибо"
 

"Бесподобно."
 

"Спасибо,песня поселилась в моей душе!"
 

"Замечательная песня! Виктория, сердечно благодарю!"
 

"Спасибо,Виктория за эту Душевную песню, проникающую в самое сердце! И спасибо моим друзьям, которые всегда со мной в трудную минуту!!!"
Статистика

Онлайн всего: 75
Гостей: 74
Пользователей: 1
Justas
Вход на сайт