Accordium Delectus Подборка аккордов
 
Главная > П > Пак Валерий > Зимняя песня

Валерий Пак: Зимняя песня



Вступление (примерный вариант):

E|-----------------------------------0----1-0------------|

H|---3-0-1-------3-0-1-------3-0-1-3-1---3----3----1-3-0-|

G|---2-2-2---2---2-2-2---2---2-2-2-2-2--2---------1------|

D|---2-2-2-2-----2-2-2-2-----2-2-2-2---0---------2-------|

A|-0-----------0-----------0-----------------------------|

         E|----------------------------------------------0--------| - 2 раза


E|-------------------------------------------------|

H|-------0>1------------0>1------------------------|

G|-----2-----2--------2-----2----------------------|

D|---2---------2----2---------2--------------------|

A|-0--------------0--------------------------------|

E|-------------------------------------------------|


Припев:

 Am     Am/G        F                   
В этой деревне огни не погашены,
      Hm7-5         E7        Am     Dm E7
Ты мне тоску не пророчь!
 Am        Am/G        F        Hm7-5   
Светлыми звёздами нежно украшена
               H7      E7     Asus4-Asus2-Am
Тихая, зимняя ночь

1.

 Dm         E7       Am      Am/G     
Светятся, тихие, светятся, чудные,
                   Dm          E7          Am Am/H-Am/C
Слышится шум полыньи
Dm7     G7        C            F            
Были пути мои трудные, трудные...
              Hm7-5          H7      E7  E/F#-E/G#
Где ж вы, печали мои?

Припев.

2.

Скромная девушка мне улыбается,
Сам я улыбчив и рад
 Dm7        G7           C         A7       
Трудное, трудное – всё забывается,
                 Dm      Hm7-5      E7  E/F#-E/G#
Светлые звёзды горят

Припев.

Проигрыш=Вступление

3=2.

Кто мне сказал, что во тьме заметеленой
Глохнет покинутый луг?
Кто мне сказал, что надежды потеряны?
Кто это выдумал, друг?

Припев.
 


 
Последние комментарии

""Ласковый май" вернулся"
 

"Безумно красивая композиция"
 

"Текст не соответствует заявленному! Примите меры."
 

"Сравните с исполнением Владимир Трошина"
 

"Класс. Настоящая песня со смыслом. А то превратили женщин элегантно года возраста а старух. А мы живые и очень даже."
Вход на сайт