Accordium Delectus Подборка аккордов
 
Главная > В > Валиор > За неё

Валиор: За неё



Вступление (2 раза):

E|-------------0-----1---0-------------------------------|

H|-1-----3-------1-----1---3-----5-----3-----------------|

G|---2-----2-------2---------4-----4-----4---------------|

D|-----2-----2-----------------5-----5-----5-------------|

A|-0-----------------------------------------------------|

E|-------------------------3-----------------------------|


E|-1-0---------0-----------------------------0-----------|

H|-----3-2-------3-1-3---------3-1-----3-------1-------0-|

G|---------0-----------4-----4-----2-----2-------2---2---|

D|-----------2-----------5-----------2-----2-------2-----|

A|-------3-----------------------0-----------------------|

E|-------------------3-----3-----------------------------|


         Am                G             
Лишь краткий путь она прошла,
   Am       G        F      E 
А жизнь ударов нанесла
 Am                 G         
Уже сполна, но не смогла
Am      G         F        E  
Её сломить - она сильна!

    Am       G/H     Em    G/D              F 
Но не прошла вся боль-обида без следа,
  Am               G                  Am
И веры свет остался лишь в себя
    Am   G/H         Em       G/D           F   
Всё изменить, рискнуть и снова полюбить
   Am                   G                  Am 
Решилась ты, бесстрашно сделав шаг

Припев:

      Am                 C                E           Am  
Судьба, прошу, не дай из чаши горя ей испить!
   Am        C                 E           Dsus2
Молю, позволь мне за неё всё искупить!
   Dsus2                   E                   
Клянусь, пройду сей путь я до конца!
   Dsus2                                    E                              Am
Клянусь, пройду, лишь только б счастлива она была всегда!


Сожги сомнения дотла,
Развей их дым – пусть веры луч ведёт тебя сквозь жизни путь
Любовь спасёт людей от зла с прикосновением тепла,
Она разгонит страх, растает сердце в нём из льда

Пройдёт вся боль, ты распрощаешься с тоской,
И счастью дверь откроется в дом твой
На мир взгляни и радость в сердце запусти,
И в небесах свою звезду зажги

Припев.

Проигрыш=Вступление (5 раз)

Припев - 2 раза.

Бой на гитаре (примерный вариант):

 


 
Последние комментарии

"Спасибо! отличная песня."
 

"Интересно кто так бездарно подбирает?! В оригинале слабо что ли?"
 

"Простая и в тоже время прекрасная,душевная песня.Спасибо!"
 

"Дзякуй"
 

"Показать окорды"
Статистика

Онлайн всего: 54
Гостей: 54
Пользователей: 0
Вход на сайт