Accordium Delectus Подборка аккордов
 
Главная > С > Стрижак Варя > Школота on-line

Варя Стрижак: Школота on-line


Смотреть в тональности Am


Вступление - 3 раза: 

Bm

E|----------------------------------------------------------------------|

H|-6-6-6-6-5-6------6-6-6-6-5-6-------6-6-6-6-5-6-----------------------|

G|------------------------------------------------------6---6-----------|

D|-------------8----------------8-----------------8-------8---8---6-8-8-|

A|----------------------------------------------------------------------|

E|----------------------------------------------------------------------|



Bm                    
Школота уже в сети,
Выпей яду и свинти
Мозги вяжем мы узлом,
Кто не с нами - под столом

Полный ахтунг учинять,
Троллить, спамить, отжигать
По пятьсот комментов в день -
Нам ещё писать не лень

Bm              C#              
Не по-детски автор жжёт,
      G#                 Bm           
Значит - ставим незачёт
Bm                   C#      
Мы в он-лайне - короли,
     G#                 Bm           
Не втыкаешь - погугли

Припев:

Bm
Называй нас школота,
Школо-лоло-лолота
В топку взрослые понты -
Время вечной школоты

Знаем, что тебе не нра
Школо-лоло-лолота
Вирус твоего винта
Запускает школота


Если мы в он-лайне есть -
Однозначно будет жесть
Всех отправим мы в отстой,
Креатив об стену твой

Эй, красавчик, мы не спим,
Если надо - зафлудим
С нами будет нелегко,
Уберись в оффлайн, имхо!

Если встанешь на пути,
Аватар и ник смени
Мы уже тебя нашли,
Не втыкаешь - погугли

Припев.

Проигрыш - 2 раза: 

Bm

E|----------------------------------------------------------------------|

H|-6-6-6-6-5-6------6-6-6-6-5-6-------6-6-6-6-5-6-----------------------|

G|------------------------------------------------------6---6-----------|

D|-------------8----------------8-----------------8-------8---8---6-8-8-|

A|----------------------------------------------------------------------|

E|----------------------------------------------------------------------|



Припев.
 


 
Последние комментарии

"а где найти ноты к этой песне"
 

"Исполнение просто супер,нет слов,с душой тревогой в душе!!!Можно слушать и слушать???"
 

"Спасибо. Класс!"
 

"класс"
 

"Круть😃😃😃"
Статистика

Онлайн всего: 27
Гостей: 27
Пользователей: 0
Вход на сайт