Accordium Delectus Подборка аккордов
 
Главная > В > Вето > Магнит

Вето: Магнит



Вступление:

  Hm+5                         A7                              
E|----------------------------------------------------------|
H|------3-------------3-------------2-------------2---------|
G|---------0---0---------0---0---------0---0---------0---0--|
D|----4------4------4------4------2------2------2------2----|
A|-2-------------2-------------0-------------0--------------|
E|----------------------------------------------------------|
 Em/G                          F#          Hmaj9             
E|--------------------------------------------------0-------|
H|------0-------------0-------------2-----------------0-----|
G|---------0---0---------0---0---------3---3------3-----3---|
D|----2------2------2------2------4------4------4---------4-|
A|----------------------------------------------------------|
E|-3-------------3-------------2-------------2--------------|

Hm+5                               A7             
Я обнимал её, как дым,
                             Em/G
Вдыхал её, как порошок,
                                    F#
Смотрел, как таяли следы,
                               Hm+5
И безоглядно за ней шёл

                    A7
Её глаза-хамелеоны
                          Em/G
Топили корабли мои,
               F#
Стирал границы с явью сон и до любви...

Припев:

G                  Em7           A7       
Она меня учила танцевать,
                       Dmaj7             Gmaj7
Заглядывала в глубь моих зрачков,
                    Em                F#  
Не вспоминая о наличии слов,
                                          G
Она могла без них всё рассказать

И растворяя всю себя во мне,
Она прекрасно знала, что сгорит
В таком непредсказуемом огне,
                                                 Hm+5
Когда магнит встречает свой магнит


И сумасшедший этот мир
День ото дня стучал в висок,
А из теней смотрел вампир
И выжидал свой верный срок,

Чтоб заразить нас жизнью вечной
И выгнать время за порог,
Но, потерявший всю беспечность, я не смог...

Припев.

Окончание:

  Hm+5                         A7                            
E|:----------------------------------------------------------|
H|:------3-------------3-------------2-------------2---------|
G|:---------0---0---------0---0---------0---0---------0---0--|
D|:----4------4------4------4------2------2------2------2----|
A|:-2-------------2-------------0-------------0--------------|
E|:----------------------------------------------------------|
               Em/G                          F#          Hmaj9                           H5
                E|--------------------------------------------------0-------:|          E|---|
                H|------0-------------0-------------2-----------------0-----:|          H|---|
                G|---------0---0---------0---0---------3---3------3-----3---:|          G|-4-|
                D|----2------2------2------2------4------4------4---------4-:|          D|-4-|
                A|----------------------------------------------------------:|          A|-2-|
                E|-3-------------3-------------2-------------2--------------:| - 2 раза E|---|

Бой на гитаре (примерный вариант):

 


 
Последние комментарии

"Спасибо! отличная песня."
 

"Интересно кто так бездарно подбирает?! В оригинале слабо что ли?"
 

"Простая и в тоже время прекрасная,душевная песня.Спасибо!"
 

"Дзякуй"
 

"Показать окорды"
Статистика

Онлайн всего: 48
Гостей: 48
Пользователей: 0
Вход на сайт