Accordium Delectus Подборка аккордов
 
Главная > А > Апрель > Подснежники

ВИА Апрель: Подснежники



Вступление:

E|-1----------------------------------------12-------------------|

H|-1------------3-5-6>8>10-8-10-12-------------------------------|

G|-2------2-4-5--------------------8>9---------------------------|

D|-0-------------------------------------------------------------|

A|--------------------------------------7------------------------|

E|---------------------------------------------------------------|

 

E|-------0-----0---------0-----0---------0-----0---------0-----0-|

H|-----1-----1---------1-----1---------1-----1---------1-----1---|

G|-3-0-----0-------3-0-----0-------3-0-----0-------3-0-----0-----|

D|---------------------------------------------------------------|

A|-0---------------0---------------0---------------0-------------|

E|---------------0---------------0---------------0---------------|


Am7                        C               
Когда встаёт из темноты
       E Ddim7/E   E      
Звезда лугов высокая,
Am7                    G       C         
Я принесу тебе цветы 
Edim7         Gdim7  Dm7                 
И положу под окнами,
      E         
Под окнами


Я принесу их и уйду,
Чтоб ты меня не видела,
Чтоб тишина мою беду
Моих шагов не выдала,
Не выдала


       A7                   Dm  Dm/C  
А ты, проснувшись на заре,
  Dm/H                E          
Потянешься, как неженка,
A7                           Dm Dm/C      
И вдруг увидишь, оробев,
     H7               E        
Тревожные подснежники

Проигрыш: C  E  Am7  B5/E A7 F  Hm7-5 E

И будешь ты удивлена,
Но кто бы мог нагрянуть?
Переберёшь все имена,
Пока цветы завянут,
     E             Am    
Пока цветы завянут

Окончание: Am  Am  E  E  Am  Am  Asus2  Am...
 


 
Последние комментарии

"Песня и исполнение - супер, берет за душу до слез. Играю и пою ее каждый день. Спасибо автору и исполнителю за столь душевную музыку"
 

"Кто автор музыки и слов???"
 

"Понравилась песня."
 

"Здорово. По-моему. лучшее исполнение"
 

"Клаааас!"
Статистика

Онлайн всего: 94
Гостей: 94
Пользователей: 0
Вход на сайт