Accordium Delectus Подборка аккордов
 
Главная > А > Ариэль > Шире круг

ВИА Ариэль: Шире круг




Вступление - 2 раза:

E|-------------------------------------------------------------------------7-|

H|-------------------------------------------------------------------------7-|

G|---------------4------------------------------------4--6~4-9~8~6---------5-|

D|-------4~5~6-6-------------4~5~4------------4~5~6-6--------------6~4~6---6-|

A|-4--7---------------4-7----------7----4--7---------------------------------|

E|------------------------------------7--------------------------------------|


C#m  G#m  F#m  G#m - 2 раза

C#5  E5  F#5  A5  E5-F#5  F#5-E5-C#5

C#5  E5  F#5  A5  G#7+9

C#m                                         
Снова заиграла музыка радости,
    A               H            C#m 
Шире круг, шире наш круг!
C#m                                                   
И опять танцуем мы без усталости,
   A               H            C#m 
Шире круг, шире наш круг!

  E       Dadd9                 E                     
Месяц в небе пляшет, звёзды качаются,
   E             F#m           G#  
Шире круг, шире наш круг!
C#m                                               
В стаи, словно птицы, звуки сливаются,
               A               H            C#m  G#7+9
Шире круг, шире наш круг!

Припев:

 C#m
Танцуем, 
 C#               C#7   F#m    
Наше время - наша песня!
   G#  
Танцуем, 
              G#                            C#m  G#7+9
Наша танцплощадка - луг

Танцуем,
Все друзья сегодня вместе
Танцуем,
  G#                        C#m
Шире сердце, шире круг!

Проигрыш - 2 раза:

E|-------------------------------------------------------------------------7-|

H|-----------------------------------------------------------5~4-----------7-|

G|---------------4------------------------------------4--6~4-----6---------5-|

D|-------4~5~6-6-------------4~5~4------------4~5~6-6--------------6~4~6---6-|

A|-4--7---------------4-7----------7----4--7---------------------------------|

E|------------------------------------7--------------------------------------|


Эй, друг, не теряйся, приглашай девушку,
Шире круг, шире наш круг!
Влюбишься, быть может, а потом женишься,
Шире круг, шире наш круг!

Будет смех кружиться с нами до полночи,
Шире круг, шире наш круг!
Танцы - это праздник, звонкий и солнечный,
Шире круг, шире наш круг!

Припев.

Проигрыш:

C#m  G#m  F#m  G#m - 2 раза

C#5  E5  F#5  A5  E5-F#5  F#5-E5-C#5

C#5  E5  F#5  A5  G#7+9

C#m  C#m  A H C#m - 2 раза G#7+9

Припев.

Окончание:

C#m  G#m  F#m  G#m - 4 раза

C#5  E5  H5-C#5 - 3 раза C#5

Бой на гитаре (примерный вариант):

 


 
Последние комментарии

"Здорово. По-моему. лучшее исполнение"
 

"Клаааас!"
 

"Низкий поклон АНГЕЛАМ ПРИСЯГИ!!!"
 

"Классная песня , с великим смыслом СПАСИБО""
 

"класс"
Статистика

Онлайн всего: 86
Гостей: 86
Пользователей: 0
Вход на сайт