Accordium Delectus Подборка аккордов
 
"
Главная > Д > Добры молодцы > На небе облака

ВИА Добры молодцы: На небе облака



Вступление:

    Am7        H7   Em              Am7        H7    Em               
E|-7-5--5--7--3----3-2--2--3--0----7-5--5--7--3--2--0---------фл12-|
H|-------------------------------------------------------фл12------|
G|-7-5--5--7--4----4-2--2--4--0----7-5--5--7--4--2--0--------------|
D|-----------------------------------------------------------------|
A|-----------------------------------------------------------------|
E|-----------------------------------------------------------------|

E|-----------------|
H|-----------5-7-8-|
G|-----------------|
D|-------5-7-------|
A|-5~7-8-----------|
E|-----------------|

    Am7        H7   Em              Am7        H7       Em9           
E|-7-5--5--7--3----3-2--2--3--0----7-5--5--7--3--2-----2--2--2-----|
H|-----------------------------------------------------3--3--3-----|
G|-7-5--5--7--4----4-2--2--4--0----7-5--5--7--4--2-----0--0--0-----|
D|-----------------------------------------------------2--2--2-----|
A|-----------------------------------------------------------------|
E|-----------------------------------------------------------------|

               Am7        H7
На небе облака,
В моей руке твоя рука
                   Am7         H7
Я думал - навсегда,
                     Em            E7
А вышло просто так

                           Am7            H7
/Как жаль, что жизнь одна,
           Em          C
И я такой один
                     Am          H7
Нет жизни без тебя,
                      Em                E7
           Нет жизни без седин/ - 2 раза

Припев:

      Am7    H7        Em    
Посидели мы, посидели,
              Am       H7         Em    E7
Поговорили мы, поговорили,
        Am7      H7           Em     C
Обсудили всё, но не судили...
                               Am            H7            Em9-Em9-Em(2)
Ах, как мы были, как молоды мы были!


А за окном весна,
И на столе стоят цветы
Всё так же, как тогда,
Со мною рядом ты

Гляжу глаза в глаза,
Касаюсь губ твоих
                     F#m7         H7
Всё так же, как тогда,
          Em
И день наш для двоих

Гляжу глаза в глаза,
Касаюсь губ твоих
                          F#m7         H7+9
Всё так же, как тогда,
          Em
И день наш для двоих

Припев:

Посидели мы, посидели,
Поговорили мы, поговорили,
Обсудили всё, но не судили...
                    F#m7         H7            Em9-Em9
Ах, как мы были, как молоды мы были!

Проигрыш:

|Am7  H7+5 H7|Emadd9 Em  Em|Am7  D7sus4 D7|Gadd9 G  G|

|H7sus4  H7-5|Em  A13 A7|C9  H7+9|Em  E7|

Припев:

Посидели мы, посидели,
Поговорили мы, поговорили,
Обсудили всё, но не судили...
                      Am6           H7             Em      E7
Ах, как мы были, как молоды мы были!

Обсудили всё, но не судили...
                F#m7     H7+9(2)        Am7   
Ах, как мы были, как молоды мы были!

Окончание:

    Am7        H7   Em              Am7        H7    Em                   
E|-7-5--5--7--3----3-2--2--3--0----7-5--5--7--3--2--0----11-12--14--15-|
H|---------------------------------------------------------------------|
G|-7-5--5--7--4----4-2--2--4--0----7-5--5--7--4--2--0----11-12--14--16-|
D|---------------------------------------------------------------------|
A|---------------------------------------------------------------------|
E|---------------------------------------------------------------------|
    Am7        H7   Em         A13  Am7        H7       Em9               
E|-7-5--5--7--3----3-2--2--3--2----7-5--5--7--3--2-----2--2------------|
H|----------------------------2------------------------3--3------------|
G|-7-5--5--7--4----4-2--2--4--0----7-5--5--7--4--2-----0--0------------|
D|-----------------------------------------------------2--2------------|
A|---------------------------------------------------------------------|
E|---------------------------------------------------------------------|

Бой на гитаре (примерный вариант):

 
Ещё песни:
 

 
 
Последние комментарии

"Слова не те"
 

"уаропоряяяяяяяяяяя"
 

"хорошо"
 
Стефания Детковская «Слава: Расскажи мне, мама

"Красивая песня"
 

"Песня моей юности! В конце 60-х она звучала из всех открытых окон и из транзисторов в руках у ребят!"
Настройка гитары
1-ая струна E (ми)  

2-ая струна H (си)  

3-я струна G (соль) 

4-ая струна D (ре) 

5-ая струна A (ля) 

6-ая струна E (ми) 
Статистика

Онлайн всего: 79
Гостей: 79
Пользователей: 0
Вход на сайт