Accordium Delectus Подборка аккордов
 
Главная > Г > Голубые гитары > У дороги чибис

ВИА Голубые гитары: У дороги чибис



Вступление:

E|-------------------------------------|

H|-------------------------------------|

G|-------------------------------------|

D|-7-7----7-7------7-----7------7------|

A|------7------7-5-----7----7-5--------|

         E|---------------------------------5-5-| - 2 раза


A                     E                     
У дороги чибис, у дороги чибис,
A      E6+9    Em6/G        F#7 
Он кричит, волнуется, чудак:
Hm                Dm      A               D#dim7 
"А скажите - чьи вы, а скажите - чьи вы,
       A          E    Hm    E       A  
И зачем , зачем идёте вы сюда?
А скажите - чьи вы, а скажите - чьи вы?
И зачем, зачем идёте вы сюда?"

Не кричи, крылатый, не тревожься зря ты,
Не войдём мы в твой зелёный сад
Видишь - мы ребята, мы друзья пернатых,
Мы твоих, твоих не тронем чибисят
Видишь - мы ребята, мы друзья пернатых,
Мы твоих, твоих не тронем чибисят

Небо голубое, уж шумит травою,
Тут тропу любую выбирай!
Это нам с тобою, всем нам дорогое,
Это наш родной, родной любимый край!
Это нам с тобою, всем нам дорогое,
Это наш родной, родной любимый край!

И когда цветёт он, и когда зовёт он,
Мы уходим в дальние пути
По степным широтам, через речки бродом,
Всю страну, страну нам хочется пройти!
По степным широтам, через речки бродом,
Всю страну, страну нам хочется пройти!

Окончание:

E|-------------------------------------|

H|-------------------------------------|

G|-------------------------------------|

D|-7-7----7-7------7-----7------7------|

A|------7------7-5-----7----7-5--------|

   E|---------------------------------5-5-|...

 


 
Последние комментарии

"СПАСИБО"
 

""про жизнь, я в армии 2004 году слушал,когда плац топтал и в караул ходил""
 

"Кто автор музыки и слов???"
 

"как время пролетело!"
 

"великолпная песня ."
Статистика

Онлайн всего: 22
Гостей: 21
Пользователей: 1
Justas
Вход на сайт