Accordium Delectus Подборка аккордов
 
Главная > М > Мрiя > Коханий

ВИА Мрiя: Коханий



В оригинале на пол-тона выше (Fm).

Можно проиграть этими же аккордами, поставив каподастр на 1-ом ладу

Вступление (примерный вариант перебора):

  Em           C           F#          H7           
E|-------0-----------0-----------------------2-----|
H|-----0---0-------1---1---------2-2-------0---0---|
G|---0-------0---0-------0-----3-----3---2-------2-|
D|---------------------------4---------------------|
A|-------------3-----------------------2-----------|
         E|-0-----------------------2-----------------------| - 2 раза

           Em                      F#       Am   
Зорі, як очі дивляться скрізь на нас,
               H7                      Em             
Серце не хоче, щоб промайнув цей час
                   Am  D7          G    
Хай в цю хвилину піснею лине
                F#  Am          H7
Понад землею радість моя!

Припев:

   Em                          F#      Am 
Коханий, мрій кришталевих цвіт,
     H7                Em        
Коханий, тобі дарую світ
     E                   Am   
Коханий, сонце і небо,
               F            H7     Dm E
Море і вітер - це ти, це ти
       Am    D7           G     C7
Коханий, сонце і небо,
            F            H7     Em
Море і вітер - це ти, це ти


Луки і доли, зазеленіли враз,
Вірю - ніколи щастя не зрадить нас
Вірю і знаю - нам нагадає
Подих весняний, вечір оцей
 
Припев.

Проигрыш:

|Em  Em|F#  Am|H7  H7|Em  Em|

|Am  D7|G  G|F#  Am|H7  H7|

Припев.

Окончание:

  Em           C           F#    H7   Em    Em6  
E|-------0-----------0-----------------------0-|
H|-----0---0-------1---1-------------0-----0-2-|
G|---0-------0---0-------0-----3---2-----0---0-|
D|---------------------------4---------------2-|
A|-------------3-----------------2-----------2-|
E|-0-----------------------2-----------0-----0-|
 


 
Последние комментарии

"Чушнёй попахивает"
 

"СПАСИБО!!!"
 

"Красивая и правдивая песня! На все времена! Всех вспомнили,никого не забыли! Спасибо!"
 

"давно искал! спасибо!"
 

"Отличный подбор! Это тебе не на амдм хлам. Спасибо!"
Статистика

Онлайн всего: 78
Гостей: 78
Пользователей: 0
Вход на сайт