Accordium Delectus Подборка аккордов
 
Главная > О > Орфей > Ты не старая, мама

ВИА Орфей: Ты не старая, мама


Вступление (примерный вариант перебора):

   G                Gmaj7               G6                Gmaj7              

E|-------3-----3------------2-----2------------0-----0------------2-----2---|

H|-----0---0-----0--------0---0-----0--------0---0-----0--------0---0-----0-|

G|---0-------0----------0-------0----------0-------0----------0-------0-----|

D|--------------------------------------------------------------------------|

A|--------------------------------------------------------------------------|

         E|-3------------------3------------------3------------------3---------------| - 2 раза

 G Gmaj7   G6      Gmaj7 
Ты опять сегодня сказала,
       Am7  D        G           
Что стареешь не по дням, по часам
G  Gmaj7    G6      Gmaj7
Cедины мне прядь показала,
     A        D             
Эту лунную дорожку в волосах

 G            G7        C    
Только я твержу тебе упрямо,
 C-C/H-Am           Bdim7         H7       
Тяжесть лет минувших не в счёт
  E             E7     Am       F     
Ты совсем не старая, слышишь, мама,
             Gsus4   G       D        G  Dsus4 D       
Верь мне, седина тебе идёт!


Вновь глядишь с улыбкой грустной,
И морщинки начинают свой бег
Прятать их - большое искусство,
Но зачем оно, зачем оно тебе?

Я тебе опять твержу упрямо:
Не тревожься ты без причин
Ты совсем не старая, слышишь, мама,
Просто нет улыбки без морщин

Проигрыш:

   G                      Dsus4   D    

E|-------3-----3------------3-----2---|

H|-----0---0-----0--------3---3-----3-|

G|---0-------0----------2-------2-----|

D|--------------------0---------------|

A|------------------------------------|

E|-3----------------------------------|


Ты детьми всё нас называешь
По привычке, ну а годы не ждут
Уступая место в трамвае,
Скоро бабушкой тебя, вдруг, назовут

Буду и тогда твердить упрямо:
Не грусти седая моя!
Ты совсем не старая, слышишь, мама,
     G            D         G  G7
Просто повзрослели сыновья!

 E            E7      Am       F   
Ты совсем не старая, слышишь, мама,
  G            D    D7   G 
Просто повзрослели сыновья!

Окончание:

   G                Gsus4                                           G   

E|-------3-----3------------3-----3---|          |--------3-----3---3-|

H|-----0---0-----0--------1---1-----1-|          |----3-2---2-1---1-0-|

G|---0-------0----------0-------0-----|          |------------------0-|

D|------------------------------------|          |------------------0-|

A|------------------------------------|          |------------------2-|

E|-3------------------3---------------| - 3 раза |-3----------------3-|


 


 
Последние комментарии

"красота"
 

"СПАСИБО"
 

""про жизнь, я в армии 2004 году слушал,когда плац топтал и в караул ходил""
 

"Кто автор музыки и слов???"
 

"как время пролетело!"
Статистика

Онлайн всего: 114
Гостей: 114
Пользователей: 0
Вход на сайт