Accordium Delectus Подборка аккордов
 
Главная > П > Песняры > Каляда

ВИА Песняры: Каляда


Вступление:

E|-9---9--9--9---7--5--5-5--4--2--0--0-0--0--0-0--0--0-0--0-0-0-|

H|-10--10-10-10--9--7--7-7--5--3--2--2-2--3--3-3--2--2-2--3-3-3-|

G|-9---9--9--9---9--7--7-7--4--2--2--2-2--2--2-2--2--2-2--2-2-2-|

D|--------------------------------------------------------------|

A|--------------------------------------------------------------|

         E|--------------------------------------------------------------| - 4 раза


A        E          F#m C#m      
Ой, калядачкі, бліны-ладачкі,
D             A       E      A         
Ой, люлі-люлі, бліны-ладачкі,
Ой, люлі-люлі, бліны-ладачкі

Ой, калядачкі, вы хутчэй-хутчэй,
Ой, люлі-люлі, вы хутчэй-хутчэй,
Ой, люлі-люлі, вы хутчэй-хутчэй!

Припев:

        E          A 
Каляда, каляда,
        E          A                            
Каляда, каляда, а-а, а-а-а, каляда!

Проигрыш:

E|-9---9--9--9---7--5--5-5--4--2--0--0-0--0--0-0--0--0-0--0-0-0-|

H|-10--10-10-10--9--7--7-7--5--3--2--2-2--3--3-3--2--2-2--3-3-3-|

G|-9---9--9--9---9--7--7-7--4--2--2--2-2--2--2-2--2--2-2--2-2-2-|

D|--------------------------------------------------------------|

A|--------------------------------------------------------------|

         E|--------------------------------------------------------------| - 2 раза


Напячэм бліноў мы з дражжэй-дражжэй,
Ой, люлі-люлі, мы з дражжэй-дражжэй,
Ой, люлі-люлі, мы з дражжэй-дражжэй!

А калядныя бліны - ладныя,
Ой, люлі-люлі, бліны ладныя,
Ой, люлі-люлі, бліны ладныя!

Припев.

Проигрыш.

Мы калядачкам нарады будзем,
Ой, люлі-люлі, нарады будзем,
Ой, люлі-люлі, нарады будзем!

Ой, на ігрычшы ды хадзіць будзем,
Ой, люлі-люлі, ды хадзіць будзем,
Ой, люлі-люлі, ды хадзіць будзем!

Припев - 2 раза.

Окончание:

E|-9---9--9--9---7--5--5-5--4--2--0--0-0--0--0-0--0--0-0--0-0-0-|

H|-10--10-10-10--9--7--7-7--5--3--2--2-2--3--3-3--2--2-2--3-3-3-|

G|-9---9--9--9---9--7--7-7--4--2--2--2-2--2--2-2--2--2-2--2-2-2-|

D|--------------------------------------------------------------|

A|--------------------------------------------------------------|

E|--------------------------------------------------------------|


E|-9---9--9--9---7--5--5-5--4--2--0--0-0--0--0-0--0-|

H|-10--10-10-10--9--7--7-7--5--3--2--2-2--3--3-3--2-|

G|-9---9--9--9---9--7--7-7--4--2--2--2-2--2--2-2--2-|

D|------------------------------------------------2-|

A|------------------------------------------------0-|

E|--------------------------------------------------|

Бой на гитаре (примерный вариант):

 
Последние комментарии

"Великолепно!"
 

"Очень приятно слышать песни своей молодости"
 

"Шикарная песня, не уходит изх репертуара вот уже 2 года"
 

"Просто супер! За душу берет"
 

"Отличная песня..."
Вход на сайт