Accordium Delectus Подборка аккордов
 
Главная > П > Поющие сердца > Прозрение

ВИА Поющие сердца: Прозрение


Вступление (примерный вариант перебора):


   G            D            A            D                          

E|---------3------------2------------0------------2-----------------|

H|------0------------3------------2------------3--------------------|

G|----0------------2------------2------------2----------------------|

D|--------------0-------------------------0-------------------------|

A|---------------------------0--------------------------------------|

E|-3----------------------------------------------------------------|

 

   G                D                A                D               

E|---------3----------------2----------------0----------------2-----|

H|------0----0-----------3----3-----------2----2-----------3----3---|

G|----0--------0-------2--------2-------2--------2-------2--------2-|

D|------------------0---------------------------------0-------------|

A|-----------------------------------0------------------------------|

E|-3----------------------------------------------------------------|


    G     D          A     D     
Каштаны свечи разожгли нежданно,
     G        A        D
Расправили широкие листы
   Hm   F#m         G(3)  F#m  
Не видел я, как хороши каштаны,
  Em     A         D       
Покуда мне не улыбнулась ты
   Hm   F#m/A         G(3)  F#m 
Не видел я, как хороши каштаны,
        Em     A         G      D  A  D
Покуда мне не улыбнулась ты


Куда не гляну – беспокойный ветер
Колеблет медоносные цветы
Не ведал я, как много их на свете,
Покуда мне не улыбнулась ты
Не ведал я, как много их на свете,
Покуда мне не улыбнулась ты


В рассветный час орёл кружится немо,
Просторы озирая с высоты
Не думал я, что так прозрачно небо,
Покуда мне не улыбнулась ты
Не думал я, что так прозрачно небо,
Покуда мне не улыбнулась ты

Проигрыш: D  A  A-H-F#m  G-A-Dmaj7  Em-F#m-Gmaj7  Am7  Hm7-Cm7-Hm7-Am7-Gmaj7  Dmaj7  Gmaj7  Gadd9  Dmaj7

Звенит дубрава, зеленеет нива,
Озёра полноводны и чисты
А я не знал, что так земля красива,
Покуда мне не улыбнулась ты
А я не знал, что так земля красива,
Покуда мне не улыбнулась ты

Окончание: D  A  A-H-F#m  G-A-Dmaj7  Em-F#m-Gmaj7  Dmaj7

 


 
Последние комментарии

"Кокой бой"
 

"А каким перебором здесь лучше всего разнообразить вальсовый бой?.."
 

"Хорошая песня."
 

"Песня супер! 👍🏻"
 

"Плакала..вспомнила родителей!...Спасибо !"
Статистика

Онлайн всего: 86
Гостей: 86
Пользователей: 0
Вход на сайт