Accordium Delectus Подборка аккордов
 
Главная > С > Синяя птица > Так вот какая ты

ВИА Синяя птица: Так вот какая ты



Смотреть в тональности Am


Вступление:

Gm            D#7           C7                                  
E|-3-3-3-3-3-3-3-6-6-6-6-6-6-6-3-3-3-3-3-3-3------------------------|
H|-3-3-3-3-3-3-3-8-8-8-8-8-8-8-5-5-5-5-5-5-5------------------------|
G|-3-3-3-3-3-3-3-6-6-6-6-6-6-6-3-3-3-3-3-3-3---------5---------5--7-|
D|-5-5-5-5-5-5-5-8-8-8-8-8-8-8-5-5-5-5-5-5-5-----4-7-------4-7------|
A|-5-5-5-5-5-5-5-6-6-6-6-6-6-6-3-3-3-3-3-3-3--5---------5-----------|
E|-3-3-3-3-3-3-3----------------------------------------------------|

Gm                       
Мог ли я подумать,
Cm                           D7              
Что вот так всё выйдет,
Cm                         F                B             Am   D7  
Что в одну минуту всё развеется как дым

Cm                 F                          
Ошибки быть не может,
B7               D#                    
Я сам сегодня видел:
                   Cm                       D#                      D Am7/E Fdim7 D7/F#
Ты шла с другим, ты шла с другим!

Припев:

Gm                                   
Так вот какая ты,
B                               
А я дарил цветы,
      Cm                               D    Am7/E Fdim7 D7/F#
А я с ума сходил от этой кра-со-ты!

Gm                                   
Так вот какая ты!
B                               
Надежды и мечты
D(5лад)          C>D(5лад)       Gm   
Ты подарила        и разбила ты!

Проигрыш:

  Gm      D#7      C7                     
E|-3-3-3-3-6-6-6-6-3-3-3-3---------------|
H|-3-3-3-3-8-8-8-8-5-5-5-5---------------|
G|-3-3-3-3-6-6-6-6-3-3-3-3----------5--7-|
D|-5-5-5-5-8-8-8-8-5-5-5-5------4-7------|
A|-5-5-5-5-6-6-6-6-3-3-3-3---5-----------|
E|-3-3-3-3-------------------------------|

Лишь вчера была ты
Всех на свете ближе,
Лишь вчера я верил, что тобою я любим,

Но лишь глаза прикрою -
И вижу, снова вижу,
Как ты с другим идёшь, с другим

Припев:

Так вот какая ты,
А я дарил цветы,
А я с ума сходил от этой красоты!

Так вот какая ты!
Надежды и мечты
    D(5лад)           C>D(5лад)        Gm  D#7
Ты подарила         и разбила ты!

Переход на 1 полутон (на 1 лад) выше (G#m)

G#m                                             
Счастлив тот не будет,
C#m                    D#7            
Кто любовь обидел,
C#m                        F#                 H              Bm  D#7  
Кто смеяться может так над самым дорогим

C#m               F#                    
И что не говори ты,
H7                E                       
Я сам сегодня видел:
                       C#m                       E                        D# Bm7/F F#dim7 D#7/G
Ты шла с другим, ты шла с другим!

Припев:

G#m                                     
Так вот какая ты!
H                                 
А я дарил цветы,
       C#m                               D#   Bm7/F F#dim7 D#7/G
А я с ума сходил от этой кра-со-ты

G#m                                     
Так вот какая ты!
H                                
Надежды и мечты
D#(6лад)         C#>D#(6лад)             
Ты подарила,          ты подарила,
C#>D#(6лад)                        G#m         
Ты подарила и разбила ты!

Окончание:

|G#m  G#m|E7  E7|

                                D#>G#m 
E|-------------------------------6--4-|
H|-------------------------------8--4-|
G|--------6---------6--------6---8--4-|
D|----5-8-------5-8------5-8-----8--6-|
A|-6---------6---------6---------6--6-|
E|----------------------------------4-|

Примерный вариант боя:


 


 
Последние комментарии

"Спасибо! отличная песня."
 

"Интересно кто так бездарно подбирает?! В оригинале слабо что ли?"
 

"Простая и в тоже время прекрасная,душевная песня.Спасибо!"
 

"Дзякуй"
 

"Показать окорды"
Статистика

Онлайн всего: 51
Гостей: 51
Пользователей: 0
Вход на сайт