Accordium Delectus Подборка аккордов
 

ВИА Весёлые ребята: Мой дом



Вступление:

Вариант 1

 

   D      G/D    Dmaj7      G/D         

E|-2-----2-3-----3-3>5-----5-5>3-----3-|

H|-----3-------3---------7---------3---|

G|---2-------4---------6---------4-----|

D|-0-------0-------0---------0---------|

A|-------------------------------------|

         E|-------------------------------------| - 2 раза

 

Вариант 2

 

   D      G/D    Dmaj7      G/D           

E|-5-----5-7-----7-7>9-------9-9-7-----7-|

H|-----7-------8----------10---------8---|

G|---7-------7---------11----------7-----|

D|-0-------0-------0-----------0---------|

A|---------------------------------------|

         E|---------------------------------------| - 2 раза

--------------------------------------------------------------------

  D/F#     G      F#m     Hm      Em7      A7       

E|-----2-------3---------2---3---------0---------0-|

H|-------3-------0-----2-------4---------3-----2---|

G|---2-------0-------2-----------5---0-------0-----|

D|-------------------------------------------------|

A|-------------------------2---------------0-------|

E|-2-------3-------2---------------0---------------|

 

   D      G/D    Dmaj7      G/D         

E|-------2-3-----3-3>5-----5-5>3-----3-|

H|-----3-------3---------7---------3---|

G|---2-------4---------6---------4-----|

D|-0-------0-------0---------0---------|

A|-------------------------------------|

E|-------------------------------------|


  Dmaj7            Am            Hm        C
Я из сухих камней сложил мой дом,
       Dmaj7         Am          Hm        C
Чтоб по душе котятам был мой дом,
           G/H               C            G        Gm
Чтоб стал мышатам тоже мил мой дом,
                              A7                               D  G/D  Dmaj7  G/D
Чтоб голубь зёрна находил в нём

 Dmaj7           Am            Hm       C        
И солнце щурилось бы там по всем углам,
          G        A7   D  G/D
Когда мой дом нем
           G/H           C            G         Gm
Чтоб детвора играла в нём, с кем?
        A7                                  
Ни с кем, с весёлым сквозняком,
                           Em7                 A7                 D  G/D  Dmaj7  G/D
И чтобы в радость был мой дом всем!

Проигрыш:

   D    D#dim7    Em      Gm     Dmaj7     H7     Em7     A7  A13   

E|-2-----2-2-----2-3-----3-3-----3-2-----2-----2---3---3---3---2---|

H|-----3-------1-------5-------3-------2---------4-------3---------|

G|---2-------2-------4-------3-------2-------2-------4-------0---0-|

D|-0-------1-------2-------3-------0---------------2---------------|

A|-----------------------------------------2---------------0-------|

         E|-----------------------------------------------------------------| - 2 раза


Без крыши он и без огня, мой дом,
И без тебя, и без меня, мой дом,
И нет в нём слуг, и нет господ, нет в нём,
И всё совсем наоборот в нём

    Dmaj7               Am         Hm      C
Ни статуй нет, ни страха нет, ни стен,
    Dmaj7         Am         Hm                C  
Нет ни оружия, ни угроз, ни взятых в плен
                G/H                     C               G           Gm         A7sus4  A7          
В нём ни реликвий, ни религий днём с огнём ты не найдёшь,
     Em7          A7           
Вот почему он так хорош,
     Em7          A7           
Вот почему он так хорош,
                           Em7          A7              D        G/D  Dmaj7  G/D
Вот почему он так хорош, мой дом!

Окончание:

Вариант 1

 

   D      G/D    Dmaj7      G/D         

E|-2-----2-3-----3-3>5-----5-5>3-----3-|

H|-----3-------3---------7---------3---|

G|---2-------4---------6---------4-----|

D|-0-------0-------0---------0---------|

A|-------------------------------------|

         E|-------------------------------------| - 2 раза

 

Вариант 2

 

   D      G/D    Dmaj7      G/D           

E|-5-----5-7-----7-7>9-------9-9-7-----7-|

H|-----7-------8----------10---------8---|

G|---7-------7---------11----------7-----|

D|-0-------0-------0-----------0---------|

A|---------------------------------------|

         E|---------------------------------------| - 2 раза

-------------------------------------------------------------------

  D/F#     G      F#m     Hm      Em7      A7       D   

E|-----2-------3---------2---3---------0---------0--2-|

H|-------3-------0-----2-------4---------3-----2----3-|

G|---2-------0-------2-----------5---0-------0------2-|

D|--------------------------------------------------0-|

A|-------------------------2---------------0----------|

E|-2-------3-------2---------------0------------------|

 

                       A7    D  

E|-5-5>3--3-3>2--2-0----0----2-|

H|-------------------3--2----3-|

G|----------------------0----2-|

D|----------------------2----0-|

A|----------------------0------|

E|-----------------------------|

 


 
Последние комментарии

"Здорово. По-моему. лучшее исполнение"
 

"Клаааас!"
 

"Низкий поклон АНГЕЛАМ ПРИСЯГИ!!!"
 

"Классная песня , с великим смыслом СПАСИБО""
 

"класс"
Статистика

Онлайн всего: 86
Гостей: 86
Пользователей: 0
Вход на сайт