Accordium Delectus Подборка аккордов
 
"
Главная > Ц > Цыганова Вика > Красная калина

Вика Цыганова: Красная калина



Вступление: 

E|--------------------------------------------------------5---------|
H|-----3---3-----------3---3-----------1-----1-----------3----------|
G|---3---3---3---3---2---2---2---2---0-----0-----2---2--5-----------|
D|-5-----------5---3-----------3---2-----1-----0---2---4-----0------|
A|------------------------------------------------------------------|
E|------------------------------------------------------------------|

E|-----------------------------------------------------5------------|
H|-----3---3-----------3---3-----------1-----1-------7--------------|
G|---3---3---3---3---2---2---2---2---0-----0-------7----------------|
D|-5-----------5---3-----------3---2-----1-------7------------------|
A|---------------------------------------------5--------------------|
E|------------------------------------------------------------------|

          Gm   A7    D7
Что ты, красная калина,
       Gm    G7     Cm
Загрустила над рекой?
                   F    Cdim7  B     Gm
Ой, и зря ты полюбила
    Cm6      Cm   D7
Этот тополь молодой!

Тополь стройный да высокий
Разгулялся в сентябре,
Разгулялся у дороги
                 D7            Gm  G7
В золоте да серебре

Припев:

Cm    F      B   
Красная калина,
   D7            Gm   
Зря ты полюбила
Cm        F       B        
Тополь серебристый
D7             D#    G/D
Осенью сыро-о-о-ой

   Cm    F      B       
"Красная калина" -
Fm       G7   Cm      
Осень говорила -
Cm>Cm7>Cm6            Cdim7 Cm/D# D7     D# G/D                 
"Тополь твой      об---ве-е-нчан
Cm             D7     Gm         
С тонкою ольхой"

Проигрыш:

E|--------------------------------------------------------5-|
H|-----3---3-----------3---3-----------1-----1-----------3--|
G|---3---3---3---3---2---2---2---2---0-----0-----2---2--5---|
D|-5-----------5---3-----------3---2-----1-----0---2---4----|
A|----------------------------------------------------------|
E|----------------------------------------------------------|

Что ты, красная калина,
Разрыдалась на ветру?
Полюбила да забыла
Про красавицу ольху

Стройный тополь не полюбит
Горемычную тебя
Ой, не зря его целует
Раскрасавица ольха

Припев.

Проигрыш:

|Gm  A7|D7  D7|Gm  G7|Cm  Cm|

|F  Cdim7|B  Gm|D7  D7|Gm  G7|

"Красная калина" -
Осень говорила -
"Тополь твой обвенчан
С тонкою ольхой"

Окончание:

E|-----------------------------------------------------5-------3-|
H|-----3---3-----------3---3-----------1-----1--------3-------3--|
G|---3---3---3---3---2---2---2---2---0-----0---------5-------3---|
D|-5-----------5---3-----------3---2-----1-----0-----------------|
A|---------------------------------------------------------------|
E|----------------------------------------------------------3----|
 
Поделись с друзьями:
 
 
Последние комментарии

"Амэнь!"
 

"В Иркутске опять дождь и монотонный и ленивый)))"
 

"Мне нравится"
 

"супер.....браво,.молодцы"
 

"интересный вариант"
Настройка гитары
1-ая струна E (ми)  

2-ая струна H (си)  

3-я струна G (соль) 

4-ая струна D (ре) 

5-ая струна A (ля) 

6-ая струна E (ми) 
Статистика

Онлайн всего: 30
Гостей: 29
Пользователей: 1
Justas
Вход на сайт