Accordium Delectus Подборка аккордов
 
Главная > К > Королёв Виктор > Проводница

Виктор Королёв: Проводница



Смотреть в тональности Am

Вступление:

|Fm  Fm|Cm  Cm|Fm  G|Cm  C7|

|Fm  Fm|Cm  Cm|Fm  G|Cm  Cm|

Соло:

   Fm                       Cm                      
E|-----15-13---15-13--13--------13-11---13-11--11-|
H|------------------------------------------------|
G|------------------------------------------------|
D|-15-----------------------13--------------------|
A|------------------------------------------------|
E|------------------------------------------------|

   Fm          G              Cm C7                 
E|-----11-10---11-10--10--------------------------|
H|-----------------------------------5--8--11-----|
G|-------------------------13-12------------------|
D|-12--------------------------------5--8--11-----|
A|-----------------------------------4--7--10-----|
E|------------------------------------------------|

   Fm                       Cm                      
E|-----15-13---15-13--13--------13-11---13-11--11-|
H|------------------------------------------------|
G|------------------------------------------------|
D|-15-----------------------13--------------------|
A|------------------------------------------------|
E|------------------------------------------------|

   Fm          G              Cm                   
E|-----11-10---11-10--10---11---------------------|
H|----------------------------13------------------|
G|------------------------------------------------|
D|-12---------------------------------------------|
A|------------------------------------------------|
E|------------------------------------------------|

             Cm                                Fm     
Купе позвякивает ложечкой в стакане,
                    B        G                  Cm   
Мой поезд змейкой ускользает в ночь
      G      Cm                                 Fm   
И светлячками гаснут огоньки в тумане,
          Cm            D7  G     Cm   
   От одиночества я убегаю прочь...

Припев:

         Fm                                     Cm     
Принеси чайку, сестрёнка-проводница,
                  Fm             G                      Cm     C7
Тебе, я знаю, в эту ночь совсем не спится
             Fm                                       Cm
Давай о жизни потолкуем - ночь длинна,
         Fm            G          Cm
И у тебя, и у меня она одна

Принеси чайку, сестрёнка-проводница,
Тебе, я знаю, в эту ночь совсем не спится
Давай о жизни потолкуем - ночь длинна,
               Fm            G          Bm  C7
И у тебя, и у меня она одна

             Fm                                       Cm 
Давай о жизни потолкуем - ночь длинна,
              Fm            G          G#7  G
И у тебя, и у меня она одна


В душе теряем что-то, видно, мы с годами...
Ты говоришь: скучаешь, редко видишь дочь,
А возвращаешься, когда домой не тянет,
И ты по-своему убегаешь прочь

Припев.

Проигрыш=Вступление

Припев:

Принеси чайку, сестрёнка-проводница,
Тебе, я знаю, в эту ночь совсем не спится
Давай о жизни потолкуем - ночь длинна,
               Fm            G          Bm  C7
И у тебя, и у меня она одна

             Fm                                       Cm
Давай о жизни потолкуем - ночь длинна,
                      Fm            G          G#7  G  Cm
И у тебя, и у меня она одна

Бой на гитаре (примерный вариант):

 


 
Последние комментарии

"Класс!"
 

"Спасибо. Отличная песня !👍🏻👍🏻👍🏻"
 

"страна превращается в большой аул осталось только горы перетащить или вырастить с барашками на траве и эти ....наших вот таких песен не поют су ки. сегодня поищу минус в инете или сам в банд ин боксе соберу разучу принципиально и каждый день на улице научу тарабарские нации слушать нашу любимую музыку ...а моя громкость их наушники пробьет ...их мать...уже в питере нет русской речи и лиц есть только бородатые хари и их в платках рожательницы наши орут только по русски но возле круглосуточных точек с выпивкой а везде трям брям речь горская епрст ну ладно хоть не негры с африки там каждый день мрёт по 12000 человек и кольбы их к нам перелетало вместо смерти то за год 1млн 200 000 человек и через 20 лет вся страна сталабы метисами как в бразилии помесь чернокожих обезьян с белыми русскими и прочими ... и станет родина не кавказом а африкой номер 2"
 

"Супео"
 

"Дивный аккомпанемент! Где можно найти такие ноты для баяна (аккордеона), со всеми этими мелизмами и переливами?? На слух не перенять. Хотя там дуэт баянистов, кажется, не считая духовых..."
Вход на сайт