Accordium Delectus Подборка аккордов
 

Виталий Гасаев: Дембеля



Вступление (примерный вариант перебора):

    Em             H7+5 Em          Am          H7           C   Cmaj7     
E|-------0-----0---3---------0-----------0-----------2-----------------|
H|-----0---0---0---0-------0---0-------1---1-------0---0-------1-----1-|
G|---0-------0-0---2-----0-------0---2-------2---2-------2---0-----0---|
D|-------------2---1---------------------------------------------------|
A|-------------2---2---------------0-----------2-----------3-----2-----|
E|-0-----------0-------0-----------------------------------------------|
    Am          H7          Em                                            
E|-------0-----------2-----------0------0------------------------------|
H|-----1---1-------0---0-------0---0----0------------------------------|
G|---2-------2---2-------2---0-------0--0------------------------------|
D|--------------------------------------2------------------------------|
A|-0-----------2------------------------2------------------------------|
E|-------------------------0------------0------------------------------|

Em                          Am   
Утро плывёт над водой,
   H7                          Em 
Спит чей-то город родной
Em/G                      Am 
Дремлет родная земля,
    H7                    Em
Ждёт своего дембелЯ

  G                            Am  
Дембель пока не спешит,
 H7                          Em
Тянется праздник души
Em/G                      Am
Скоро седой старшина
 H7                           Em 
Дембелю скажет: "Пора"

Припев:

H7+5   Em          Am   
Дембеля, дембеля -
        H7         Em 
Это "ля", это "фа",
      Em/G        Am 
Это просто "лафа",
           D            G 
Когда мы дембеля!

            E7          Am  
Когда пьяный "кусок"
              H7                 C Cmaj7
И один марш-бросок
         Am                H7         Em
На вокзал, где друзья-дембеля,
D      Em
О-о-о-о!


Из года в год, день за днем:
"Рота, тревога! Подъём!"
На караул и в наряд,
Три буквы помнит солдат

Помнит зелёной весной,
Осенью помнит сырой
Надпись в солдатской судьбе:
"ДМБ, ДМБ"

Припев.

Дембель не курит, не пьёт,
Дембель Отчизну спасёт
Он принесёт в край родной
Мир, тишину и покой

Ах, до чего ж хороша
Армия нАша... нашА!
Любит она всё сильней
Дембелей, дембелей

Припев.

Дембеля, дембеля -
Это "ля", это "фа",
Это просто "лафа",
Когда мы дембеля!

Когда пьяный "кусок"
      H7                 C  
И один марш-бросок
         Am                H7         Em
На вокзал, где друзья-дембеля
 


 
Последние комментарии

"вспомнила молодость"
 

"Вместо с/ н луше Сm"
 

"я в восторге! Есть вариант другого исполнения. хочу пробовать этот вариант."
 

"Это бывший вратарь футбольной команды Динамо (Киев)!У меня есть его автограф! А кто написал эту песню, увы, неизвестно!?"
 

"Большое спасибо!"
Статистика

Онлайн всего: 50
Гостей: 50
Пользователей: 0
Вход на сайт