Accordium Delectus Подборка аккордов
 
Главная > М > Малежик Вячеслав > Да не о том песня

Вячеслав Малежик: Да не о том песня



Вступление:

E|-8-6-5-3--0-5-----------5-6-5-0--1-------------------------|

H|-8--------------6-----6------------3---3-----3-------------|

G|-7------------7-----7----------------2-----2---------------|

D|-5----------0----------------------0-----------------------|

A|------------------0-----0----------------0-----------------|

E|-----------------------------------------------------------|


E|-8-6-5-3--0-5-----------5-6-5-0--1-------------------------|

H|----------------6-----6------------3---3-----3-----3-----3-|

G|--------------7-----7----------------2-----2-----2-----2---|

D|-5----------0----------------------0-----------0-----------|

A|------------------0-----0----------------0-----------0-----|

E|-----------------------------------------------------------|


Dm         Gm      A7    Dm
Солнце опять за облако,
  C                F      
Да не о том песня
Gm                        Dm           
Есть с кем шагать под руку,
      A7                  Cm     D7
Не с кем идти вместе
Gm                        Dm            
Есть с кем шагать под руку,
 A7                  Dm   
Не с кем идти вместе

Делай сама выводы,
Это ведь так просто!
Есть с кем считать выгоды,
Не с кем считать звёзды
Есть с кем считать выгоды,
Не с кем считать звёзды

Припев:

Gm              Dm  
Вот и весь ответ
                A7                       Cm   D7
На вопрос, как живу на свете
Gm                   Dm                         
А с тебя какой может быть спрос,
 A7                    Dm  
Сам я за всё в ответе

Проигрыш=Вступление

Тайну пропьют привратники,
И огласят судьи
Есть с кем встречать праздники,
Не с кем делить будни
Есть с кем встречать праздники,
Не с кем делить будни

Припев.

Gm                   Dm                         
А с тебя какой может быть спрос,
 A7                    Dm  
Сам я за всё в ответе

Проигрыш=Вступление

Dm         Gm      A7    Dm
Солнце опять за облако,
  C                 F     
   Да не о том песня...
 


 
Последние комментарии

"Спасибо! отличная песня."
 

"Интересно кто так бездарно подбирает?! В оригинале слабо что ли?"
 

"Простая и в тоже время прекрасная,душевная песня.Спасибо!"
 

"Дзякуй"
 

"Показать окорды"
Статистика

Онлайн всего: 53
Гостей: 53
Пользователей: 0
Вход на сайт