Accordium Delectus Подборка аккордов
 

Вячеслав Малежик: Дорога


Вступление (примерный вариант):


E|---------0------------------0------------------0------------------0-------|

H|-------0-----0------------0-----0------------0-----0------------0---------|

G|-----2-----2---2--------2-----2---2--------2-----2---2--------2-----------|

D|---2------------------3------------------4------------------3-------------|

A|-0------------------0------------------0------------------0---------------|

E|--------------------------------------------------------------------------|


E|---------0------------------0------------------0------------------0-------|

H|-------0-----0------------0-----0------------0-----0------------0---------|

G|-----2-----2---2--------2-----2---2--------2-----2---2--------2-----------|

D|---2------------------3------------------4------------------3-------------|

A|-0------------------0------------------0------------------0---------------|

E|--------------------------------------------------------------------------|


      Am         Am+7          Am7      Dm   
Как дорога светлым утром на ночную не похожа,
      Dm       Hm7-5        E          Am
   Как торопится дорога между завтра и вчера...
                Dm7  G     G/A    G/H   C    
Было мне в твоё окошко постучаться невозможно,
     F          H7+9        E         Am
А теперь меня сама ты провожаешь до утра
Было мне в твоё окошко постучаться невозможно,
А теперь меня сама ты провожаешь до утра

Проигрыш:

E|---------0------------------0------------------0------------------0-------|

H|-------0-----0------------0-----0------------0-----0------------0---------|

G|-----2-----2---2--------2-----2---2--------2-----2---2--------2-----------|

D|---2------------------3------------------4------------------3-------------|

A|-0------------------0------------------0------------------0---------------|

E|--------------------------------------------------------------------------|


Может так у всех бывает, я не знаю, я не знаю,
Но минута наступает, та, которой ждёшь давно...
Только я не понимаю, отчего приходит счастье,
Только я не понимаю, чем заслужено оно
Только я не понимаю, отчего приходит счастье,
Только я не понимаю, чем заслужено оно

Dm7    G  C   Fmaj7   
Ла-ла-ла ла-ла-ла-а-а,
Dm       Em       Am
   Ла-ла-ла ла-ла ла-ла...
Dm7    G  C   Fmaj7   
Ла-ла-ла ла-ла-ла-а-а,
Dm       Em       Am
   Ла-ла-ла ла-ла ла-ла...

Проигрыш:

E|---------0------------------0------------------0------------------0-------|

H|-------0-----0------------0-----0------------0-----0------------0---------|

G|-----2-----2---2--------2-----2---2--------2-----2---2--------2-----------|

D|---2------------------3------------------4------------------3-------------|

A|-0------------------0------------------0------------------0---------------|

E|--------------------------------------------------------------------------|


Проводив меня, берёзки долго машут вслед листами,
На холме, у поворота, пятерню протянет клён...
Я теперь дорогу эту, как на крыльях, пролетаю,
Потому что ждёшь меня ты, потому что я влюблён!
Я теперь дорогу эту, как на крыльях, пролетаю,
Потому что ждёшь меня ты, потому что я влюблён!

Ла-ла-ла ла-ла-ла-а-а,
Ла-ла-ла ла-ла ла-ла...
Ла-ла-ла ла-ла-ла-а-а,
Ла-ла-ла ла-ла ла-ла...

Окончание:

E|---------0------------------0------------------0------------------0-------|

H|-------0-----0------------0-----0------------0-----0------------0---------|

G|-----2-----2---2--------2-----2---2--------2-----2---2--------2-----------|

D|---2------------------3------------------4------------------3-------------|

A|-0------------------0------------------0------------------0---------------|

E|--------------------------------------------------------------------------|


E|---------0------------------0------------------0------------------0-------|

H|-------0-----0------------0-----0------------0-----0------------0---------|

G|-----2-----2---2--------2-----2---2--------2-----2---2--------2-----------|

D|---2------------------3------------------4------------------3-------------|

A|-0------------------0------------------0------------------0---------------|

E|--------------------------------------------------------------------------|

 


 
Последние комментарии

"Песню услышал примерно год назад, но тогда найти автора и исполнителя не удалось. А песня так понравилась, что разослал ролик всем своим друзьям, желая поделиться прекрасным! И вот, слава бобу, песня стала популярной! Браво, Виктория!"
 

"Клас"
 

"Кто авторы?Хочу сделать клип."
 

"Дааа... Моей маме я уж смогу руки целовать только во сне..."
 

"Всегда злободневно!!!"
Статистика

Онлайн всего: 29
Гостей: 29
Пользователей: 0
Вход на сайт