Accordium Delectus Подборка аккордов
 
Главная > М > Малежик Вячеслав > И будет март

Вячеслав Малежик: И будет март



Вступление:

    Am7           D7su4  Dm7        E7             Am7                
E|------------0---3-----1-1---0---------------1-0----------------|
H|------1--3----------1-----------3---------3-----3-----1--------|
G|-----0--------0---2-------2---2-----1---------------0------0---|
D|----2-----------0-----------------2---2-----------2------2---2-|
A|-0--------------------------------------2-------0--------------|
E|--------------------------------0------------------------------|
  Am7           D7su4  Dm7        E7                              
E|------------0---3-----1-1---0---------------------0------------|
H|------1--3----------1-----------3-------3----------------------|
G|-----0--------0---2-------2---2-----1-----1---1----------------|
D|----2-----------0-----------------2---2-----2------------------|
A|-0-------------------------------------------------------------|
E|--------------------------------0------------------------------|

            Hm7      E7           Amadd9 
И будет март, и будет синий вечер,
                             Hm7  E7                 Amadd9  A7
Случайной встречи     беспощадной миг
                      Dm     G                 C     Fmaj7
И будут Ваши худенькие плечи
              Hm7      E7         Amadd9
Бояться рук застенчивых моих

И возле Вас, отчаянно красивой,
На дне души запрятав злую грусть,
Я притворюсь весёлым и счастливым,
Влюблённым и любимым притворюсь

Припев:

                 Dm                  E7                       Am7    
Но слишком ясен горький путь под Вашим взглядом,
               Dm             E7                 Am7   
Родной души не обмануть лихой бравадой
              A7  Dm     A7  Dm        G           C       Fmaj7
Себя и Вас не уберечь от терпкой муки -
                    Dm                         E7                 Am7 
Всю жизнь искать случайных встреч на дне разлуки

Проигрыш=Вступление

И будет май, и будет звёздный вечер,
Случайной встречи долгожданный миг
Чужие руки на родные плечи -
Банальный водевильчик на троих

И возле вас, отчаянно беспечной,
На дне души запрятав боль разлук,
Увижу я, как плачут Ваши плечи
В плену таких неравнодушных рук

Припев.

Себя и Вас не уберечь от терпкой муки -
Всю жизнь искать случайных встреч на дне разлуки

Окончание:

    Am7           D7su4  Dm7        E7             Am7                     
E|------------0---3-----1-1---0---------------1-0---------------------|
H|------1--3----------1-----------3---------3-----3-----1-------------|
G|-----0--------0---2-------2---2-----1---------------0------0--------|
D|----2-----------0-----------------2---2-----------2------2---2------|
A|-0--------------------------------------2-------0-------------------|
E|--------------------------------0-----------------------------------|
    Am7           D7su4  Dm7        E7             Am7                     
E|------------0---3-----1-1---0---------------1-0-------------------5-|
H|------1--3----------1-----------3---------3-----3-----1----1------5-|
G|-----0--------0---2-------2---2-----1---------------0---------------|
D|----2-----------0-----------------2---2-----------2------2---2------|
A|-0--------------------------------------2-------0-----------------0-|
E|--------------------------------0-----------------------------------|
 
Поделись с друзьями:
 
 
Последние комментарии

"Правильные аккорды. Я так же подобрал - только в ля миноре. А здесь не в ля, а фа миноре."
 

"Класс!!!!!!!!!!"
 

"Спасибо ОГРОМНОЕ! Удачи Вам!"
 

"ок"
 

"Отличная песня!!"
Настройка гитары
1-ая струна E (ми)  

2-ая струна H (си)  

3-я струна G (соль) 

4-ая струна D (ре) 

5-ая струна A (ля) 

6-ая струна E (ми) 
Статистика

Онлайн всего: 47
Гостей: 47
Пользователей: 0
Вход на сайт