Accordium Delectus Подборка аккордов
 

Вячеслав Малежик: Любимая



Вступление:

E|-3-------2-3-5-2-3---------------3-------2-3-5-2-3---------3-----|
H|-----5---------------5-------5-------5---------------3---3---3---|
G|---4---4-----------4---4---4---4---4---4-----------4---4-------4-|
D|-2---------------2-------2-------2-------0-------5---------------|
A|---------2-------------------------------------------------------|
E|-----------------------------------------------------------------|

E|-----5---2---------------------------5-------7---5--------2------|
H|-5-----------4-----------7-8-------------5---------------4-------|
G|---2---2---2---2-------9--------9------5---5---5--------2--------|
D|--------------------10-------10---10---------------7---4---------|
A|-3-------2-------10-----------------------------------2----------|
E|-------------------------------------2---------------------------|

 Em            H7              Em
Любимая, ты соткана из света,
   Em                D                   G
Пушинка на ветру беспечных лет
                Am/C                H7      C-5    C
Любовь моя - ты песня без сюжета,
            F#m7-5       Amadd9 Am   H7
В которой только музыка        и свет

 Am(2)              H7              Em
Я придумал бы слова для песни этой,
     Am(2)               D               G
Да такие, чтоб кружилась голова
               Dm                 E7           Am   Am7
Но когда так много музыки и света,
           Am6                                  H7
Ни к чему, пожалуй, громкие слова


Любимая, ты соткана из тени
Души, познавшей призрачную власть
Любовь моя - ты боль без утешения,
В которой лишь желание и страсть

Я бы выклянчил минуту состраданья,
Я бы выстрадал желаемую роль,
Но когда так много страсти и желания,
Ни к чему, пожалуй, сетовать на боль...

Проигрыш=Вступление

    Em            H7              Em   
Любимая, ты соткана из света,
Любимая, ты соткана из тени...
 


 
Последние комментарии

"Спасибо! отличная песня."
 

"Интересно кто так бездарно подбирает?! В оригинале слабо что ли?"
 

"Простая и в тоже время прекрасная,душевная песня.Спасибо!"
 

"Дзякуй"
 

"Показать окорды"
Статистика

Онлайн всего: 47
Гостей: 47
Пользователей: 0
Вход на сайт