Accordium Delectus Подборка аккордов
 
Главная > М > Малежик Вячеслав > Не вспоминай

Вячеслав Малежик: Не вспоминай



Вступление (играется куплет):

  Dm           Bmaj7-5   A7+5 A7   Dm               Gm6               
E|-1---0-1---------5-3-----1---0-------1-0-1---------5-6-5-6-3-------|
H|---------3---3-------3---------------------3---3---------------3---|
G|---2-------2---2-------3---0---0-------------2---2-----------3---3-|
D|-0--------------------------------0--------------------------------|
A|-------------------------0-----------------------------------------|
E|-----------------0---------------------------------0---------------|

  Dm            Bmaj7-5  A7+5 A7    C      G/H    Gm/B     A7         
E|---1-0-1---------5-3-----1---0--------0-------3-------3------------|
H|---------3---3-------3--------------------3-------3-------2--------|
G|-----------2---2-------3---0---0----0---0---0---0---0---0----------|
D|-0-----------------------------------------------------------------|
A|-------------------------0--------3-------2-------1-------0--------|
E|-----------------0-------------------------------------------------|

Dm                     Bmaj7-5         A7+5 A7 
Не вспоминай ни в святости, ни всу-у-е,
Dm                               Gm6                               
Зачем плутать в потёмках по судьбе?
Dm                 Bmaj7-5       A7+5 A7      
Уже тебя давно я не ревну-у-ю
C                      G/H     Gm/B          A7    
К былой любви, к далёкому себе

Не вспоминай, когда осоловеет
От песен соловьиных месяц май
В объятиях равнодушного халдея
Слова моей любви не вспоминай

Припев:

      Gm           A7          Dm    
Отгорело, отцвело, отболело,
            Gm             A7      Dm
Глупый норов закусил удила
                Cm                    D7       Gm    Gm7
/Удержать меня в плену не сумела
      Dm        A7             Dm
              И разлукою убить не смогла!/ - 2 раза


Не вспоминай с отвагой бесшабашной
И зряшным делом не кляни себя,
Ведь от любви и умереть не страшно,
Страшнее жить на свете не любя!

Припев.

Проигрыш=Вступление

Не вспоминай ни в святости, ни всуе,
Зачем плутать в потёмках по судьбе?
Уже тебя давно я не ревную
К былой любви, к далёкому себе,
К былой любви, к далёкому себе

Окончание:

  Dm           Bmaj7-5   A7+5 A7  Dsus2                    Dm     
E|-1---0-1---------5-3-----1---0----------0-------0------------1-|
H|---------3---3-------3----------------3---3---3---3---3-----3--|
G|---2-------2---2-------3---0---0----2-------2-------2------2---|
D|-0--------------------------------0-----------------------0----|
A|-------------------------0-------------------------------------|
E|-----------------0---------------------------------------------|
 


 
Последние комментарии

"В припевах после проигрыша НЕ ,,колдунья,, а КРОВИНКА ! Исправьте пожалуйста... С уважением, Анатолий КОРЖ"
 

"для многих эта песня актуальна и многие примеряют к себе"
 

"Очень прекрасная песня."
 

"Перепели качественно! Молодцы!"
 

"Монгол шуудан круче исполнил"
Статистика

Онлайн всего: 45
Гостей: 45
Пользователей: 0
Вход на сайт