Accordium Delectus Подборка аккордов
 
Главная > М > Малежик Вячеслав > Ты мне нравишься

Вячеслав Малежик: Ты мне нравишься




Вступление (примерный вариант):

  Gm      Gm+7      Gm7      Gm/E     Cm               D7                    

E|--------------------------------------------------------------------------|

H|-----3--------3--------3--------3------------4----------------7-----------|

G|---3---3----3---3----3---3----3---3------5-------5--------5-------5-------|

D|-5--------4--------3--------2----------5---5---5---5----7---7---7---7-----|

A|-------------------------------------3----------------5-------------------|

E|--------------------------------------------------------------------------|

solo

E|-6--------5-6-5----3-----------------3---5---6---3----2---3-5---8---------|

H|----------------------------------------------------------4-7---10--------|

 

  Gm      Gm+7      Gm7      Gm/E     Cm               D7                    

E|--------------------------------------------------------------------------|

H|-----3--------3--------3--------3------------4----------------7-----------|

G|---3---3----3---3----3---3----3---3------5-------5--------5---------------|

D|-5--------4--------3--------2----------5---5---5---5----7---7-------------|

A|-------------------------------------3----------------5-------------------|

E|--------------------------------------------------------------------------|

solo

E|-6--------5-6-5----3-----------------3---5---6---3----2-------------------|

H|--------------------------------------------------------------------------|


Припев:

                         Gm         Gm+7 Gm7
Ты мне нравишься -
Gm/E            Cm        
И это мне не нравится,
                           D7                            Gm  D7
А под руками клавиши поют мотив любви

Ты мне нравишься -
И это мне не нравится,
Пройдусь с тобой по краешку над пропастью молвы


    Cm7                         F    
Прогулки по тонкому льду - 
           Bmaj7                D#maj7 Gm/D
Прогулки по минному полю,
   Cm       Cm7/B       Am7        
И вот на свиданье к тебе я иду, 
   Am7                     D7   
Несу свою радость и боль

На счастье иль на беду, 
Ты сделала шаг мне навстречу,
И вот на свиданье к тебе я иду
       D7                         Gm    
В холодный сентябрьский вечер

Припев.

Холодные струи дождя - 
Компресс воспалённому мозгу
А может быть всё это, всё это зря,
А может иду я не в ногу?

На счастье иль на беду, 
Ты сделала шаг мне навстречу,
И вот на свиданье к тебе я иду 
В холодный сентябрьский вечер

Припев - 2 раза.

Окончание (примерный вариант):

  Gm      Gm+7      Gm7      Gm/E     Cm               D7                 Gm7                

E|------------------------------------------------------------------------------3--------3-|

H|-----3--------3--------3--------3------------4----------------7--------------3-3-------3-|

G|---3---3----3---3----3---3----3---3------5-------5--------5-------5---------3---3------3-|

D|-5--------4--------3--------2----------5---5---5---5----7---7---7---7------3-----3-----3-|

A|-------------------------------------3----------------5-------------------5------------5-|

E|-------------------------------------------------------------------------3-------------3-|

 

solo

E|-6--------5-6-5----3-----------------3---5---6---3----2---3-5---8------------------------|

H|----------------------------------------------------------4-7---10-----------------------|

 
Поделись с друзьями:
 
 
Последние комментарии

"Песню услышал примерно год назад, но тогда найти автора и исполнителя не удалось. А песня так понравилась, что разослал ролик всем своим друзьям, желая поделиться прекрасным! И вот, слава бобу, песня стала популярной! Браво, Виктория!"
 

"Клас"
 

"Кто авторы?Хочу сделать клип."
 

"Дааа... Моей маме я уж смогу руки целовать только во сне..."
 

"Всегда злободневно!!!"
Статистика

Онлайн всего: 26
Гостей: 26
Пользователей: 0
Вход на сайт