Accordium Delectus Подборка аккордов
 
Главная > М > Малежик Вячеслав > Всё-таки ты права

Вячеслав Малежик: Всё-таки ты права



Вступление (примерный вариант перебора):

  Em              H7/F#            E7/G#             Am               

E|---------0----------------2----------------4----------------0-------|

H|-----0-------0--------0-------0--------3-------3--------1-------1---|

G|---0---0---0---0----2---2---2---2----4---4---4---4----2---2---2---2-|

D|--------------------------------------------------------------------|

A|----------------------------------------------------0---------------|

E|-0----------------2----------------4--------------------------------|

 

   D                G              F#m7              H7                

E|---------2----------------3----------------0----------------2-------|

H|-----3-------3--------0-------0--------2-------2--------0-------0---|

G|---2---2---2---2----0---0---0---0----2---2---2---2----2---2---2---2-|

D|-0---------------------------------4--------------------------------|

A|----------------------------------------------------2---------------|

E|------------------3-------------------------------------------------|



   Em               H7/F# 
Столбики переправ 
E7/G#              Am  
Срублены на дрова...
D                         G    
Я, как всегда, не прав, 
F#m7                     H7
Ты, как всегда, права

Только у правоты - 
Палка о двух концах
Только у маяты
F#m7    H7    Em 
Нет своего лица 

Припев:

       Am                      H7         
А дрова в печи в пол-огня горят,
                  Em     Em+7        Em7  Em/C#     
Дымом злым в ночи нам глаза слезят 
             Am         D             G        C    
Мир, как сон, размыт, снег идёт сто лет,
      Am                H7   Em  
У реки обид переправы нет


Память, служить устав, 
Горбится, как вдова 
Кажется, я не прав, 
Кажется, ты права

Сколько судьбу латать? 
Глупо, в конце-концов! 
Но отчего опять 
Снится твоё лицо? 

Припев.

Проигрыш:

Em  H7/F#  E7/G#  Am  D  G  F#m7  H7  Em

Близится ледостав,
Вязнет в снегу молва
Всё-таки я не прав, 
Всё-таки ты права

Тихо иду по льду - 
Как он непрочно сшит! 
Может быть, вновь дойду 
Я до твоей души...

Припев - 2 раза.

Окончание:

Em  H7/F#  E7/G#  Am  D  G  F#m7  H7  Em

Примерный вариант боя на гитаре:

 


 
Последние комментарии

"Перебор Пожалуйста"
 

"Класс"
 

"Да где же такой город Саха,кто мне расскажет?Про республику Арцах не слышали,не?На помощь мирным людям гор Арцаха!"
 

"Оперативно,просто молодцы!Огромное спасибо!Звучит классно!!!"
 

"10/10 Хочу чтобы он воскрес Как Иисус,только Юрок круче"
Статистика

Онлайн всего: 92
Гостей: 91
Пользователей: 1
Justas
Вход на сайт