Accordium Delectus Подборка аккордов
 

Владимир Асимов (На-На): Матушка



Вступление:

  Hm7   H7sus2     E   Esus4 E       A     Asus2    F#7   F#sus4 F#7  
E|-------------------------------------------------------------------|
H|-3-------2-------0---------------0-2-------0-------------------2---|
G|-----2-------2-------1>2---1---2-------2-------2---3-------4-------|
D|---4---4---4---4---2-----2---2-------2---2---2---2---2-4-2---2---2-|
A|-2-------2-------------------------0-------------------------------|
E|-----------------0---------------------------------2---------------|

  Hm              F#m             Hm      C#7     F#m Hm F#m          
E|--------------------------------------------------2--2--2----------|
H|---2-3---3-----------2---2-------------------2----2--3--2----------|
G|-4-----------4---2-4---------2---4-2-1-2-4--------2--4--2----------|
D|-------4---4---4-------4---4---4-----------3---3--4--4--4----------|
A|-2-------------------------------2-------4--------4--2--4----------|
E|-----------------2--------------------------------2-----2----------|

  F#m                C#7             F#m
На правой руке золото кольцо,
 F#m                        D  C#7    F#m
Сердце-то в груди птахою дрожит
     D                 Hm               C#7   F#m
Что ж от глаз моих прячешь ты лицо,
                    Hm7  H7sus2   E  Esus4 E   A  Asus2   F#7  F#sus4 F#7
Ми-и-и-ла-а-а-я,             боль мо-о-о-я?

Hm            F#m                  
Или я был так уж не мил,
 Hm                 C#7   F#m    Em  F#7
Что забыть смогла меня, родна-а-я?
 Hm                   F#m          D 
Что ж не гнала, любым звала,
Hm                 C#7       F#m Hm F#m 
А к венцу с моим дружком  пошла?

Переход на 1 тон (на 2 лада) выше (G#m)

G#m                    D#7             G#m  
А у церкви есть старенький погост,
  G#m                          E     D#7 G#m
Где под клёном спит матушка  моя
G#m                  C#m           D#7      G#m  
Я отправлюсь к ней, свой задам вопрос:
 C#m7  F#   H      G#7
"Матушка, кровь моя,

C#m              G#m           
Что-то сынок твой занемог,
 C#m           D#7      G#m      F#m  G#7
Дай совет и сил мне дай, родна-а-а-я
C#m          C#m6 G#m             E     
Как же мне быть? Как же мне жить?
  C#m                 D#7 G#m C#m G#m 
С кем дружить, кого теперь лю-ю-бить?

Переход обратно в F#m

Клён зашелестит золотой листвой,
На ладонь мою оброни слезу
И поговори ласково со мной:
"Мальчик мой, сын родной,

Зло отпусти, друга прости,
Не кори неверную подругу,
Знай, отболит рана твоя,
Только Бог один всему судья"

F#m                C#7             F#m
На правой руке золото кольцо,
F#m                        D  C#7    F#m 
Сердце-то в груди птахою дрожит...

Бой на гитаре (примерный вариант):

 


 
Последние комментарии

"затронуло за живое спасибо Аркаша!"
 

"Что-то ,как-то не очень воспроизводится песенка! Может технический брак?"
 

"Прекрасное исполнение."
 

"Си бемоль начало и так далее! валенки"
 

"Что вы за подборщик вам медведь насухо наступил там другие окорды в оригинале в исполнении Муслима магомаева"
Статистика

Онлайн всего: 138
Гостей: 138
Пользователей: 0
Вход на сайт