Accordium Delectus Подборка аккордов
 
Главная > К > Кузьмин Владимир > Харлей Кришна

Владимир Кузьмин: Харлей Кришна



Вступление (примерный вариант):

E|------10--------------------10------------------5-5-5--5--5>7--5--------|

H|----12----12-10--12-------12----12-10--12------7------------------7~5~--|

G|--12--------------------12--------------------7----------------------~7-|

D|-0---------------------0---------------------0--------------------------|

A|------------------------------------------------------------------------|

E|------------------------------------------------------------------------|


E|----5-5-5--5--5>7--5-5--5-------10-10-9--9--7--7--5--7-------4--5-------0--2-2-|

H|---5----------------------------7--7--7--7--7--7------------3----------3-------|

G|--6-----------------------------7--7--7--7--7--7-----------2----------2--------|

D|-----------------------------9----------------------------0----------0---------|

A|-0-----------------------------------------------------------------------------|

E|-------------------------------------------------------------------------------|


D5                                    
Старый байкер, бывший бес,
H5                                
Перестал вдруг мясо есть
C5                               
И не курит, и не пьёт,
A5                             
Тёлок в баню не берёт

В карты завязал играть,
Стал всем нашим в мозг втирать:
"Мы не тело, мы душа,
Жизнь за смертью хороша!

G5                                             
Каждый из реинкарнации,
D5                                              
Все тела должны меняться
A5                                             
Будешь правильно вести,
С Богом будешь ты на "ты"

Проигрыш:

|G5  G5|D5  D5|A5  A5|H5  H5|

Но четыре есть табу:
Пить, курить - только в гробу!
В карты, в кости не играть
И про женщин не мечтать

Если будешь мясо жрать -
Станешь козликом рогатым
Ну а будешь девок мять -
Выйдешь осликом-кастратом!"

Бес, который и "Муму"
В этой жизни не читал,
Стал возить нам книжек тьму,
Всё бесплатно раздавал

Проигрыш:

|G5  G5|D5  D5|A5  A5|H5  H5|

------------------------------------------------------------

D5                            
Свами Бахти Махарадж,
H5                                  
Он складировал в гараж
C5                                  
Байкер-бес ушёл для нас,
A5                        
Стал он Махаришидас

G5                                            
Спит на соломе в гараже,
D5                                        
Стал святым почти уже
A5                                    
Ещё солнышко не вышло,
Распевает: "Харе Кришна"

Припев - 2 раза:

G5                                      
Харе Кришна, Харе Кришна,
D5                                                 
Кришна, Кришна, Харе, Харе
A5                                                  
Харе Рама, Харе Рама, Рама,
H5                                        
Рама, Рама, Харе, Харе



Жену свою забросил Риту,
Стал читать Бхагавадгиту
Всё, что нужно в книге той,
Есть для жизни золотой

Если в суть писания вник,
То других не нужно книг
Если что-нибудь поймёшь -
Сразу к Богу попадёшь

Припев - 2 раза.

Hm                                                     
Бес побрился на лысо, надел шафран,
A6                                          
Деньги клубные забрал на храм
Em                                                   
Стал считать всё в этой жизни лишним
      A                                                       A5
И пожертвовал свой Харлей Кришне

Припев - 5 раз.

Харе Кришна, Харе Кришна,
Кришна, Кришна, Харе, Харе
Харе Рама, Харе Рама, Рама,
G5                                      D5
Рама, Рама, Харе, Харе

Бой на гитаре (примерный вариант):

 
 
Последние комментарии

"Спасибо! отличная песня."
 

"Интересно кто так бездарно подбирает?! В оригинале слабо что ли?"
 

"Простая и в тоже время прекрасная,душевная песня.Спасибо!"
 

"Дзякуй"
 

"Показать окорды"
Статистика

Онлайн всего: 56
Гостей: 56
Пользователей: 0
Вход на сайт