Accordium Delectus Подборка аккордов
 

Владимир Кузьмин: Нет сил



Вступление:

Dm     Dm/F     Em7    Em7-5    

E|-------1-------1-------0-------0-|

H|-----3-------3-------3-------3---|

G|---2-------2-------0-------0-----|

D|-0-------3-----------------------|

A|-------------------------1-------|

         E|-----------------0---------------| - 2 раза


Dm                                      
Сегодня, конечно, не высплюсь,
Dm/C                       
Да и завтра навряд ли засну
G6                               
Опоясанный тёмною мыслью,
       Em7-5                      A7
Я в колодце отчаянья тону

Он прощал мне мои прегрешения
До поры, но случилась беда
Остаётся лишь ждать приглашения
                                 Em7-5                  Asus4 A7 Asus4 A7(2)
В отделении Святого Суда

Припев:

F                   
Я покаяться был бы рад,
C                 
Чтобы благость вернуть назад
B                    
Я б у Бога спасенья просил,
          Asus4                    A7  
Только нет от страдания сил!

Я покаяться был бы рад,
Чтобы благость вернуть назад
Я б у Бога спасенья просил,
         Asus4    A7                   Dm 
   Только не-е-е-ет, нет больше сил...

Проигрыш=Вступление

Отвернулся мой ангел-хранитель
И в пучине мучений увяз
Разум крутит змеиные нити,
Бесы в пенах устроили пляс

За бедою приходят подружки,
Издеваются, песни поют
В церкви молятся тихо старушки
За пропащую душу мою

Припев.

Проигрыш:

Dm  Dm  Dm/C  Dm/C  G6  G6  Em7-5  A7

Dm  Dm  Dm/C  Dm/C  G6  G6  Em7-5  Asus4  A7  Asus4  A7(2)

Припев.

Окончание:

Dm     Dm/F     Em7    Em7-5                  Dm

E|-------1-------1-------0-------0-|          E|-1-|

H|-----3-------3-------3-------3---|          H|-3-|

G|---2-------2-------0-------0-----|          G|-2-|

D|-0-------3-----------------------|          D|-0-|

A|-------------------------1-------|          A|---|

E|-----------------0---------------| - 4 раза E|---|


Бой на гитаре (примерный вариант):

 


 
Последние комментарии

"Подбор овно уж простите"
 

"Мимо фальши Посмотрел видео и увидел вот это: на 7 ладу 4 и первом
 

"Какая музыка, исполнение... слушаешь и наслаждаешься, пьешь эту музыку и эти слова, и не можешь остановиться..."
 

""You belong with me""
 

"Класс!"
Вход на сайт