Accordium Delectus Подборка аккордов
 
Главная > М > Мигуля Владимир > Почему не ведаю

Владимир Мигуля: Почему не ведаю



Смотреть в тональности Am

Вступление (примерный вариант перебора):

  Gm                     Cm/G                      F                      B/F                      
E|-------3-----------3-----------3-----------3-----------1-----------1-----------1-----------1-----|
H|-----3---3-------3---3-------4---4-------4---4-------1---1-------1---1-------3---3-------3---3---|
G|---3-------3---3-------3---5-------5---5-------5---2-------2---2-------2---3-------3---3-------3-|
D|-------------------------------------------------------------------------------------------------|
A|-------------------------------------------------------------------------------------------------|
E|-3-----------3-----------3-----------3-----------1-----------1-----------1-----------1-----------|
   D#                     Cm                      D7                                                
E|-------3-----------3-----------3-----------3-----------5-----------5-----------5-----------5-----|
H|-----4---4-------4---4-------4---4-------4---4-------7---7-------7---7-------7---7-------7---7---|
G|---3-------3---3-------3---5-------5---5-------5---5-------5---5-------5---5-------5---5-------5-|
D|-------------------------------------------------------------------------------------------------|
A|-6-----------6-----------3-----------3-----------5-----------5-----------5-----------5-----------|
E|-------------------------------------------------------------------------------------------------|
  Gm                        
E|-------3-----------3-----|
H|-----3---3-------3---3---|
G|---3-------3---3-------3-|
D|-------------------------|
A|-------------------------|
E|-3-----------3-----------|

             Gm   Cm                 D7
Почему - не ведаю, грусть в душе тая,
Gm                   D#maj7     F         B          G       
Под зелёной вербою ты не ждёшь меня
Cm                   F       Bmaj7             D#maj7  
Почему черёмуха,        почему бела,
Cm                    D7      Gm                  G        
Почему вчера ещё ты со мной была?
Cm                   F       Bmaj7             D#maj7  
Почему черёмуха,        почему бела,
Cm                    D7      Gm                          
Почему вчера ещё ты меня ждала?

А сегодня скучная, платье в сундуке,
И кольцо разлучное не на той руке
Почему вдоль бережка вдаль плывёт венок,
Тот, что ты сплетала мне в прошлый вечерок?
Почему вдоль бережка вдаль плывёт венок,
Тот, что ты сплетала мне в прошлый вечерок?

Проигрыш:

|D#m  F|B7  G|Cm  Cm|D#7  D#7|Gm/D  Gm/D|D7  D7|Gsus4  Gm|Gm  D#7|

Переход на 1 полутон (на 1 лад) выше (G#m)

             G#m    C#m                        D#7
Почему обещано       счастье, да не мне,
G#m                   Emaj7     F#     H      G#       
В зиму мы обвенчаны или по весне?
C#m                     F#      Hmaj7                 Emaj7     
Почему мне лебеди         чудятся в снегу,
C#m                   D#7   G#m          G#         
Свадебные белые кони на бегу?
C#m                     F#      Hmaj7                 Emaj7     
Почему мне лебеди         чудятся в снегу,
C#m                   D#7   G#m                        
Свадебные белые кони на бегу?

Проигрыш:

|G#m  G#m|C#m  D#7|G#m  Emaj7|F#  H G#|

Почему мне лебеди чудятся в снегу,
Свадебные белые кони на бегу?
Почему мне лебеди чудятся в снегу,
Свадебные белые кони на бегу?

Окончание:

|G#m  G#m|C#m/G#  C#m/G#|D#7  D#7|D#7  D#7|G#m  G#m|D#7>G#m|

   

 
Последние комментарии

"Прямо ностальгия!!!"
 

"Мой отец-участник ВОВ. Мать всю войну трудилась на тяжелых работах."
 

"Десантник - это не профессия, это НАЦИОНАЛЬНОСТЬ. Слава ВДВ!"
 

"Очень понравилась песня!!!! 👍
 

"Виктор Кто автор слов и музыки???"
Статистика

Онлайн всего: 102
Гостей: 101
Пользователей: 1
Justas
Вход на сайт