Accordium Delectus Подборка аккордов
 
"
Главная > П > Пресняков Владимир > Незаконнорожденный мой сын

Владимир Пресняков: Незаконнорожденный мой сын


Вступление:


E|-------------------------------------------------------------|

H|------0------------1--------------0------------3---------1---|

G|----0----0-------0----0---------0----0-----------0---------0-|

D|-0------------2---------2----0------------2-4---------2------|

A|-------------------------------------------------------------|

         E|-------------------------------------------------------------| - 2 раза

 Gsus2             Cadd9              Am7               Em         D/F#     

E|-7-7--7-7-7-5-3----7-7--7-7-7-5-3----7-7--7-7-7-5-3----5-5-3----2-3--2-3-|

H|-------------------------------------------------------------------------|

G|-------------------------------------------------------------------------|

D|-------------------------------------------------------------------------|

A|-------------------------------------------------------------------------|

      E|-------------------------------------------------------------------------| - 2 раза


  Gsus2                 Em   
В грохоте хард-рока и металла
Gsus2                 Em   
Слышу я знакомый клавесин -
C           G/H     
Это вспомнил обо мне
  Am7        Em   
В недалёкой стороне
    C        D           Gsus2  
Незаконнорожденный мой сын

Снится мне мой мальчик в снах тревожных,
Снится мне лишь только он один
Ты грехи мне отпусти,
Ты за всё меня прости,
Незаконнорожденный мой сын

Припев:

           Am7             G/H 
Не плачь сынок, не плачь сынок,
            Em   
Не плачь напрасно
           С       Am7 
Ложись скорее на бочок,
     Gsus2      Em
Слёзы горькие утри

           Am7             G/H 
Не плачь сынок, не плачь сынок,
          Em   
Мой светик ясный
                A7          D     
Ты здесь со мной, ты не один,
                       Gsus2  
Не плачь, я буду с тобой

Проигрыш:

 Gsus2             Cadd9              Am7               Em         D/F#     

E|-7-7--7-7-7-5-3----7-7--7-7-7-5-3----7-7--7-7-7-5-3----5-5-3----2-3--2-3-|

H|-------------------------------------------------------------------------|

G|-------------------------------------------------------------------------|

D|-------------------------------------------------------------------------|

A|-------------------------------------------------------------------------|

      E|-------------------------------------------------------------------------| - 2 раза


Я бегу из дома в шумный город
И сажусь в свободное такси
И на всё махнув рукой,
Еду я к тебе, родной,
Незаконнорожденный мой сын

В грохоте хард-рока и металла
Слышу я знакомый клавесин -
Это вспомнил обо мне
В недалёкой стороне
Незаконнорожденный мой сын

Припев.

Окончание:

 Gsus2             Cadd9              Am7               Em         D/F#     

E|-7-7--7-7-7-5-3----7-7--7-7-7-5-3----7-7--7-7-7-5-3----5-5-3----2-3--2-3-|

H|-------------------------------------------------------------------------|

G|-------------------------------------------------------------------------|

D|-------------------------------------------------------------------------|

A|-------------------------------------------------------------------------|

      E|-------------------------------------------------------------------------| - 4 раза


E|-------------------------------------------------------------|

H|------0------------1--------------0------------3---------1---|

G|----0----0-------0----0---------0----0-----------0---------0-|

D|-0------------2---------2----0------------2-4---------2------|

A|-------------------------------------------------------------|

E|-------------------------------------------------------------|


E|----------------------------------------------------------------|

H|------0------------1--------------0------------3---------1----0-|

G|----0----0-------0----0---------0----0-----------0---------0--0-|

D|-0------------2---------2----0------------2-4---------2-------0-|

A|----------------------------------------------------------------|

E|----------------------------------------------------------------|

 
Поделись с друзьями:
 
 
Последние комментарии
Андрей Черняев «БИРТМАН: Иволга

"Спасибо! Долго добирался до компьютера, ещё раз большое спасибо!"
 

"Песня юности..."
 

"Очень круто!)) Вот тебе и актерское пение!!"
 

"Тогда другим - с крутых яиц бульон"
 
Борис Блохин «БИРТМАН: Иволга

"Ну и хрень."
Настройка гитары
1-ая струна E (ми)  

2-ая струна H (си)  

3-я струна G (соль) 

4-ая струна D (ре) 

5-ая струна A (ля) 

6-ая струна E (ми) 
Статистика

Онлайн всего: 66
Гостей: 66
Пользователей: 0
Вход на сайт